Oops, an error
Loading. Please wait.

Fear Of A Blank Planet chords

version 1
version 1

Whole song

  • Also includes a tab of the riff.

Interactive

229 views 1 this week
no commentswrite comment
1 2 3 4 5
2 more votes to show rating
add to favorites
×
Save as Personal and add changes to this tab that will be seen only by you. Learn more ›
×
You can save this tab as Personal to edit and correct it or add notes. All changes will be seen only by you. Learn more »
launch autoscroll
font size
0
reset
transpose
0
reset
simplify chords
display chords
guitar tuner
backing track
0:00
0:00
edit
Autoscroll
slow
fast
+/-
esc
set tempo
stop
About this tab version
Also includes a tab of the riff. Was this info helpful? Yes No
Strumming Is this strumming pattern correct? Yes No
C-Part 100 bpm
1
 
&
 
2
 
&
 
3
 
&
 
Listen
E7/G#   xx675x
Gm7/D   x5536x
E7/D    x5645x or xx0100
E7/F    xx3130
Dsus2#5 xx0330


[Intro]

Dm G#dim7 Gm7 E7/G#
Dm G#dim7 Gm7 E7/G#
Dm G#dim7 Gm7 E7/G#
Dm G#dim7 Gm7 E7/G#
Dm Ddim7 Gm7/D E7/D
Dm G#dim7 Gm7 E7/F

[Verse]

Dm                Ddim7
  Sunlight coming through the haze
   Gm7/D
No gaps in the blinds
Gm7/D
To let it inside
    E7/D
The bed is unmade,
E7/D
Some music still plays

[Verse]

Dm            G#dim7
TV, yeah it's always on
    Gm7
The flicker on the screen
Gm7
A movie actress screams
    E7/F                            Dm
I'm basking the shit flowing out of it

                  Ddim7
I'm stoned in the mall again
Gm7/D
Terminally bored
Gm7/D
Shuffling round the stores
    E7/D                                  Dm
And shoplifting is getting so last year's thing

           G#dim7
X-Box is a god to me
  Gm7
A finger on the switch
Gm7
My mother is a bitch
   E7/F                                  Dm
My father gave up ever trying to talk to me

[Bridge]

Ddim7 Gm7/D E7/D
Dm G#dim7 Gm7 E7/F

[Verse]

Dm            Ddim7
  Don't try engaging me
    Gm7/D
The vaguest of shrugs
Gm7/D
The prescription drugs
E7/D
You'll never find a person inside

Dm           G#dim7
  My face is Mogadon
Gm7
Curiosity has given up on me
    E7/F
I'm tuning out desires
E7/F                 Gm
The pills are on the rise

[Chorus]

             Eb
How can I be sure I'm here?
    Cm                                  Ab
The pills that I've been taking confuse me
Gm                       Eb
  I need to know that someone sees that
        Cm                            Ab
There's nothing left, I simply am not here

[Verse]

Dm                 Ddim7
  I'm through with pornography
    Gm7/D
The acting is lame
Gm7
The action is tame
  E7/D
Explicitly dull
E7/D
Arousal annulled

Dm                     G#dim7
  Your mouth should be boarded up
Gm7                    
Talking all day with nothing to say
     E7/F
Your shallow proclamations
E7/F
All misinformation

Dm                  Ddim7
  My friend says he wants to die
Gm7/D
He's in a band, they sound like Pearl Jam
      E7/D
Their clothes are all black
E7/D
The music is crap

Dm                  G#dim7
  In school I don't concentrate
    Gm7
And sex is kinda fun, but just another one
   E7/F                               Gm
Of all the empty ways of using up the day

[Chorus]

             Eb
How can I be sure I'm here?
    Cm                                  Ab
The pills that I've been taking confuse me
Gm                       Eb
  I need to know that someone sees that
        Cm                            Ab
There's nothing left, I simply am not here

Gm           Eb
   Bipolar disorder
Cm                      Ab
   Can't deal with this boredom
Gm           Eb
   Bipolar disorder
Cm                      Ab
   Can't deal with this boredom

[Bridge]

Dm G#dim7 Gm7 E7/G# Dm G#dim7 Gm7 E7/G#
Dm G#dim7 Gm7 E7/G# Dm G#dim7 Gm7 E7/G#
Ddim Bb7 Bdim7 Bb7 Ddim Bb7 Bdim7 Bb7
Ddim Bb7 Bdim7 Bb7 Ddim Bb7 Bdim7 Bb7

N.C.

[Riff]

e|---------------------------------------------------------------|
B|---------------------------------------------------------------|
G|---------------------------------------------------------------|
D|-------------------------------6--6-0-5--5-0-----6---5---5---5-|
A|-----5-----4---------3---2-----6--6-0-5--5-0-3-5---5-------5---|
D|-0-0---0-0---0-0-3-4---0---3-0-6--6-0-5--5-0-------------------|

e|---------------------------------------------------------------|
B|---------------------------------------------------------------|
G|---------------------------------------------------------------|
D|-------------------------------6--6-0-5--5-0-----6---5---5---5-|
A|-----5-----4---------3---2-----6--6-0-5--5-0-3-5---5-------5---|
D|-0-0---0-0---0-0-3-4---0---3-0-6--6-0-5--5-0-------------------|

e|---------------------------------------------------------------|
B|---------------------------------------------------------------|
G|---------------------------------------------------------------|
D|-------------------------------6--6-0-5--5-0-----6---5---5---5-|
A|-----5-----4---------3---2-----6--6-0-5--5-0-3-5---5-------5---|
D|-0-0---0-0---0-0-3-4---0---3-0-6--6-0-5--5-0-------------------|

e|---------------------------------------------------------------|
B|---------------------------------------------------------------|
G|---------------------------------------------------------------|
D|-------------------------------6--6-0-5--5-0-----6---5---5---5-|
A|-----5-----4---------3---2-----6--6-0-5--5-0-3-5---5-------5---|
D|-0-0---0-0---0-0-3-4---0---3-0-6--6-0-5--5-0-------------------|

[Bridge]

Dm Ddim7 Gm7/D E7/D
Dm G#dim7 Gm7 E7/F

[Solo]

Dm Ddim7 Gm7/D E7/D
Dm G#dim7 Gm7 E7/F

[C-Part]

Dsus2 Dsus2#5 Dsus2 Csus2
Dsus2 Ab      Gm    F
Dsus2 Dsus2#5 Dsus2 Csus2
Dsus2 Ab      Gm    F

Dsus2     Dsus2#5
      You don't try to be liked
     Dsus2
You don't mind
    Csus2   Dsus2
You feel no sun
    Ab      Gm
You steal a gun
   F
To kill time

Dsus2    Dsus2#5
  You're somewhere, you're nowhere
     Dsus2
You don't care
    Csus2     Dsus2
You catch the breeze
    Ab        Gm
You still the leaves
   F
So now where?

[Outro]

Dsus2 Dsus2#5 Dsus2

            
            
Suggest correction
Creating personal tab
Creating personal tab
You can edit any tab online and save it as your Personal.

You can edit, replace or remove any tab part or add personal notes – all changes will be seen only by you.

Personal tabs can be accessed anytime from any device, even offline.
Learn more »
Give kudos to tab author, rate the tab!
1 2 3 4 5
comments
print report bad tab
guest
You may want to rate the tab now too:
select rating
Wanna post a correction for this tab? Suggest correction