Oops, an error
Loading. Please wait.

Fear Of A Blank Planet intro tab

version 1
version 1

Intro

Whole song

Interactive

5,951 views 3 this week
3 commentsread comments
1 2 3 4 5
1 last vote to show rating
add to favorites
×
Save as Personal and add changes to this tab that will be seen only by you. Learn more ›
×
You can save this tab as Personal to edit and correct it or add notes. All changes will be seen only by you. Learn more »
launch autoscroll
font size
0
reset
how to read this tab
guitar tuner
backing track
0:00
0:00
edit
Autoscroll
slow
fast
+/-
esc
set tempo
stop
Author
Difficulty
Fear Of A Blank Planet
Porcupine Tree

Tuning used for the whole song must be Drop D but it doesn't matter for this

e|-------------------------------------------------|
B|---3-3---3-3---3-3---3-3---3-3---3-3---3-3---3-3-|
G|-------------------------1-----1-----1-----1-----|
D|-0-----0-----0-----0-----------------------------|
A|-------------------------------------------------|
E|-------------------------------------------------|

e|---------1-----------1-----------0-----------0---|
B|---3-3-----3---3-3-----3---3-3-----3---3-3-----3-|
G|-0-----0-----0-----0-----1-----1-----1-----1-----|
D|-------------------------------------------------|
A|-------------------------------------------------|
E|-------------------------------------------------|

This, actually, goes on for most part of the song

            
            
Suggest correction
Creating personal tab
Creating personal tab
You can edit any tab online and save it as your Personal.

You can edit, replace or remove any tab part or add personal notes – all changes will be seen only by you.

Personal tabs can be accessed anytime from any device, even offline.
Learn more »
Give kudos to tab author, rate the tab!
1 2 3 4 5
comments
print report bad tab
3 comments total.
0 reply
A Modern Myth 149 Mar 02, 2007 04:56 AM

Yep, pretty accurate.

+2 reply
Brendan.Clace 110 Jun 30, 2008 08:25 AM

The intro to this song is based on the "devil's interval" it is played much higher. Check out any interview with Steven Wilson when he actually plays the song.

0 reply
Jonny616 10 Nov 09, 2008 07:10 AM

Hmm, it sounds a bit wrong to me. This is what I've got, I just can't be bothered to post it into a new tab...

e|-------------------------------------------------|
B|-------------------------------------------------|
G|---7-7---7-7---7-7---7-7---7-7---7-7---7-7---7-7-|
D|-0-----0-----0-----0-----6-----6-----6-----6-----|
A|-------------------------------------------------|
E|-------------------------------------------------|

e|-------------------------------------------------|
B|---------6-----------6-----------5-----------5---|
G|---7-7-----7---7-7-----7---7-7-----7---7-7-----7-|
D|-5-----5-----5-----5-----6-----6-----6-----6-----|
A|-------------------------------------------------|
E|-------------------------------------------------|

guest
You may want to rate the tab now too:
select rating
Wanna post a correction for this tab? Suggest correction