Oops, an error
Loading. Please wait.

Fear Of A Blank Planet tab

version 1
version 1

Whole song

Interactive

35,908 views 24 this week
5 commentsread comments
1 2 3 4 5
x 20
add to favorites
×
Save as Personal and add changes to this tab that will be seen only by you. Learn more ›
×
You can save this tab as Personal to edit and correct it or add notes. All changes will be seen only by you. Learn more »
launch autoscroll
font size
0
reset
how to read this tab
guitar tuner
backing track
0:00
0:00
edit
Autoscroll
slow
fast
+/-
esc
set tempo
stop
Fear Of A Blank Planet
Tabbed By Fuu
Tuning: Drop-D

[Intro](2x)  
e|------------------------------------------------------------------------------------------------|
B|--------------------------------------------------------6-----------6-----------5-----------5---|
G|--7-7---7-7---7-7---7-7---7-7---7-7---7-7---7-7---7-7-----7---7-7-----7---7-7-----7---7-7-----7-|
D|0-----0-----0-----0-----6-----6-----6-----6-----5-----5-----5-----5-----6-----6-----6-----6-----|
A|------------------------------------------------------------------------------------------------|
D|------------------------------------------------------------------------------------------------|
(Drums enter)

[Riff A](2x)
e|------------------------------------------------------------------------------------------------|
B|--------------------------------------------------------6-----------6-----------5-----------5---|
G|--7-7---7-7---7-7---7-7---7-7---7-7---7-7---7-7---7-7-----7---7-7-----7---7-7-----7---7-7-----7-|
D|0-----0-----0-----0-----6-----6-----6-----6-----5-----5-----5-----5-----6-----6-----6-----6-----|
A|------------------------------------------------------------------------------------------------|
D|------------------------------------------------------------------------------------------------|
(Bass, keyboard and weird noise enters)

[Riff A: 2x]
(Vocals enter)

[Riff A: 5x]
(Distortion Guitar enter)

[Riff A: 2x]
[Riff B: 1x]
e|-------------------------------------------------------------------------------------|
B|-------------------------------------------------------------------------------------|
G|-------------------------------------------------------------------------------------|
D|-------------------------------------------------------------------------------------|
A|--5------5---5-5---5------5---5-5---5------5---5-5---5------5---5-5---5------5---5-5-|
D|0---0--0---0-----0---0--0---0-----0---0--0---0-----0---0--0---0-----0---0--0---0-----|

e|---------------------------------------------------|
B|---------------------------------------------------|
G|---------------------------------------------------|
D|---------------------------------------------------|
A|--6------6---6-6---5------5---5-5---3------3---3-3-|
D|6---6--6---6-----5---5--5---5-----3---3--3---3-----|

[Riff A: 2x]

[Riff B: 1x]

[Chorus]
e|-------------------------------------------------------------------|
B|-------------------------------------------------------------------|
G|-------------------------------------------------------------------|
D|5--------1--------10--------6--------5--------1--------10--------6-|
A|5--------1--------10--------6--------5--------1--------10--------6-|
D|5--------1--------10--------6--------5--------1--------10--------6-|

[Riff B: 1x]
[Riff A: 2x]
[Riff B: 1x]

[Chorus: 2x]

[Riff C: 4x]
e|---------------------------------------------------------------|
B|-----------------------------------------6----------------5----|
G|--7----7----7----7----7----7----7-----7-----7----7-----7-----7-|
D|0----0----0----6----6----6----5----5-----------6----6----------|
A|---------------------------------------------------------------|
D|---------------------------------------------------------------|

[Riff D: 4x]
e|--------------------------------------------------------------------------------|
B|----9---9-------9-------9---9-------9-------9---9-------9-------9---9-------9---|
G|--7---7---7---7---7---7---7---7---7---7---7---7---7---7---7---7---7---7---7---7-|
D|0-----------0-------8-----------8-------9-----------9-------8-----------8-------|
A|--------------------------------------------------------------------------------|
D|--------------------------------------------------------------------------------|

[Drum Break]

[Riff E](Heavy Riff)(4x)
e|-----------------------------------------------------------------|
B|-----------------------------------------------------------------|
G|-----------------------------------------------------------------|
D|------------------------------6--6---5--5------------------------|
A|----5---4----------3---2------6--6---5--5--------11----10~----10-|
D|0-0---0---0-0-3--4---4---3-0--6--6-0-5--5--10-12----12-----12----|

[Riff A: 5x]
[Riff B: 3x]
Suggest correction
Creating personal tab
Creating personal tab
You can edit any tab online and save it as your Personal.

You can edit, replace or remove any tab part or add personal notes – all changes will be seen only by you.

Personal tabs can be accessed anytime from any device, even offline.
Learn more »
comments
print report bad tab
5 comments total. Showing first comments.
-1 reply
Fuu 10 Mar 08, 2007 06:30 AM

Why it shows that an unregistered user has tabbed this? It was me.

Anyways it has couple little mistakes:

where vocals enter, play Riff A 4x

and

in the heavy riff I forgot one 10:
D----------------------------|
A--------11----10~-10---10---|
D--10-12----12-------12------|

+1 reply
Fuu 10 Mar 09, 2007 03:19 PM

Omg more mistakes!

Riff B goes like this:

e|----------------------------------------------------------------------------------------------------------------------------------------|
B|----------------------------------------------------------------------------------------------------------------------------------------|
G|----------------------------------------------------------------------------------------------------------------------------------------|
D|---------------------------------------------------------------------------------------6------6---6-6---5------5---5-5---3------3---3---|
A|--5------5---5-5---5------5---5-5---5------5---5-5---5------5---5-5---5------5---5-5----------------------------------------------------|
D|0---0--0---0-----0---0--0---0-----0---0--0---0-----0---0--0---0-----0---0--0---0-----6---6--6---6-----5---5--5---5-----3---3--3---3-----|

0 reply
Mazzakazza 110 May 29, 2007 04:13 AM

This is really good. And yeah, your corrections are better than what's on the tab. Thanks.

guest
Wanna post a correction for this tab? Suggest correction