Oops, an error
Loading. Please wait.

Gravity Eyelids bass

22 views 3 this week
no commentswrite comment
1 2 3 4 5
3 more votes to show rating
add to favorites
×
Save as Personal and add changes to this tab that will be seen only by you. Learn more ›
×
You can save this tab as Personal to edit and correct it or add notes. All changes will be seen only by you. Learn more »
launch autoscroll
font size
0
reset
guitar tuner
edit
Autoscroll
slow
fast
+/-
esc
set tempo
stop
Artist: Porcupine Tree
Song: Gravity Eyelids
Album: In Absentia (2002)

Bass (E A D G): - 'Colin Edwin - Clean, Finger'

Q = 83bpm
4/4
[Verse 1]
No bass

[Chorus 1]
No bass

[Verse 2]
    E   E  (E)  E   Q       Q          (Q.)         E   E   E   Q
G|-----------------------------------|-----------------------------------|
D|-----------------------------------|-----------------------------------|
A|------------------7----------------|----------------------7------------|
E|--0---0------/7-----------7\-------|--------------0---5-------5\-------|

   E    E  (E)  E   Q       Q          (Q.)         E   E   E   Q
G|-----------------------------------|-----------------------------------|
D|-----------------------------------|----------------------3------------|
A|--------------7---8-------7\-------|------------------1-------1--------|
E|--1---1----------------------------|--------------1--------------------|

    E   E  (E)  E   Q       Q          (Q.)         E   E   E   Q
G|-----------------------------------|-----------------------------------|
D|-----------------------------------|-----------------------------------|
A|------------------7----------------|----------------------7------------|
E|--0---0------/7-----------7\-------|-------------/5---5-------5\-------|

   E    E  (E)  E   Q       Q          (Q.)         E   E   S S Q
G|-----------------------------------|-----------------------------------|
D|-----------------------------------|-----------------------------------|
A|--------------7---8-------7\-------|----------------------8------------|
E|--1---1----------------------------|--------------1--/6-----8-6--------|

    E   E  (E)  E   Q       Q          (Q.)         E   E   E   Q
G|-----------------------------------|-----------------------------------|
D|-----------------------------------|-----------------------------------|
A|------------------7----------------|----------------------7------------|
E|--0---0------/7-----------7\-------|--------------0---5-------5\-------|

   E    E  (E)  E   Q       Q          (Q.)         E   E   E   Q
G|-----------------------------------|-----------------------------------|
D|-----------------------------------|----------------------3------------|
A|--------------7---8-------7\-------|------------------1-------1--------|
E|--1---1----------------------------|--------------1--------------------|

[Chorus 2]
    H              +Q.          E       W 
G|-----------------------------------|-----------------------------------|
D|-----------------------------------|-----------------------------------|
A|--4--------------------------------|--3--------------------------------|
E|------------------------------4----|-----------------------------------|

    H.                      E   E       H               E   E   E   E 
G|-----------------------------------|-----------------------------------|
D|--------------------------3--------|-----------------------------------|
A|--1---------------------------1----|------------------6-------2---3----|
E|-----------------------------------|--4-------------------4------------|

    H              +Q.          E       W
G|-----------------------------------|-----------------------------------|
D|-----------------------------------|-----------------------------------|
A|--4--------------------------------|--3--------------------------------|
E|------------------------------4----|-----------------------------------|

    W                                   H              +E   E   E   E
G|-----------------------------------|-----------------------------------|
D|-----------------------------------|-----------------------------------|
A|--1--------------------------------|--------------------------2---3----|
E|-----------------------------------|--4-------------------4------------|

    H.                      E   E       H              +Q.          E
G|-----------------------------------|-----------------------------------|
D|--------------------------6--------|-----------------------------------|
A|--4---------------------------4----|--3--------------------------------|
E|-----------------------------------|------------------------------3----|

    W                                   H              +E   E   E   E 
G|-----------------------------------|-----------------------------------|
D|-----------------------------------|-----------------------------------|
A|--1--------------------------------|--------------------------3---6----|
E|-----------------------------------|--4-------------------4------------|

    H              +Q.          E       W
G|-----------------------------------|-----------------------------------|
D|------------------------------6----|-----------------------------------|
A|--4--------------------------------|--3--------------------------------|
E|-----------------------------------|-----------------------------------|

[Interlude]
    Wx8
G|-----------------------------------|-----------------------------------|
D|-----------------------------------|-----------------------------------|
A|--7--------------------------------|-----------------------------------|
E|-----------------------------------|-----------------------------------|

    S S S S (E) S S S S (E) S S (E)    (W)
G|-----------------------------------|-----------------------------------|
D|o----------------------------------|-----------------------------------|
A|o---7-5-----------5----------------|-----------------------------------|
E|--0-----6-----5-6---6-----5-3------|-----------------------------------|

    S S S S (E) S S S S (E) S S (E)    (H)             S S S(S) S S S(S) (x2)
G|-----------------------------------|-----------------------------------|
D|-----------------------------------|----------------------------------o|
A|----7-5-----------5----------------|-----------------7-7-5------------o|
E|--0-----6-----5-6---6-----5-3------|--------------------------6-5-6----|


    S S S E   S S S S E.    S E.        E   S E   S E.   S E    S S E   (x8)
G|-----------------------------------|-----------------------------------|
D|-----------------------------------|----------------------------------o|
A|----7-5-----------5----------------|-------------------7-5------------o|
E|--0-----6---6-5-6---6-----5-3------|--0---0-3---3-5-----------6-5-6----|

5/8
    S S S S S S S S S S     S S S S S S S S S S     S S S S S S S S S S     S S S S S S S S S S
G|-----------------------|-----------------------|-----------------------|-----------------------|
D|-----------------------|-----------------------|-----------------------|-----------------------|
A|--7-7-7-7-7-7-7-7-7-7--|--4-4-4-4-4-4-4-4-4-4--|--3-3-3-3-3-3-3-3-3-3--|--1-1-1-1-1-1-1-1-1-1--|
E|-----------------------|-----------------------|-----------------------|-----------------------|

    S S S S S S S S S S     S S S S S S S S S S     S S S S S S S S S S     S S S S S S S S S S
G|-----------------------|-----------------------|-----------------------|-----------------------|
D|-----------------------|-----------------------|-----------------------|-----------------------|
A|--7-7-7-7-7-7-7-7-7-7--|--4-4-4-4-4-4-4-4-4-4--|--3-3-3-3-3-3-3-3-3-3--|--1-1-1-1--------------|
E|-----------------------|-----------------------|-----------------------|----------1-1-1-1-1-1--|

    S S S S S S S S S S     S S S S S S S S S S     S S S S S S S S S S     S S S S S S S S S S  
G|-----------------------|-----------------------|-----------------------|-----------------------|
D|-----------------------|-----------------------|-----------------------|-----------------------|
A|-----------------------|--4-4-4-4-4-4-4-4-4-4--|--3-3-3-3-3-3-3-3-3-3--|--1-1-1-1-1-1-1-1-1-1--|
E|--0-0-0-0-0-0-0-0-0-0--|-----------------------|-----------------------|-----------------------|

    S S S S S S S S S S     S S S S S S S S S S     S S S S S S S S S S     S S S S S S S S S S
G|-----------------------|-----------------------|-----------------------|-----------------------|
D|-----------------------|-----------------------|-----------------------|-----------------------|
A|--7-7-7-7-7-7-7-7-7-7--|--4-4-4-4-4-4-4-4-4-4--|--3-3-3-3-3-3-3-3-3-3--|--1-1-1-1--------------|
E|-----------------------|-----------------------|-----------------------|----------1-1-1-1-1-1--|

    S S S S S S S S S S     S S S S S S S S S S     S S S S S S S S S S     S S S S S S S S S S  
G|-----------------------|-----------------------|-----------------------|-----------------------|
D|-----------------------|-----------------------|-----------------------|-----------------------|
A|-----------------------|--4-4-4-4-4-4-4-4-4-4--|--3-3-3-3-3-3-3-3-3-3--|--1-1-1-1--------------|
E|--0-0-0-0-0-0-0-0-0-0--|-----------------------|-----------------------|----------1-1-1-1-1-1--|

    S S S S S S S S S S     S S S S S S S S S S     S S S S S S S S S S     S S S S S S S S S S  
G|-----------------------|-----------------------|-----------------------|-----------------------|
D|-----------------------|-----------------------|-----------------------|-----------------------|
A|-----------------------|--4-4-4-4-4-4-4-4-4-4--|--3-3-3-3-3-3-3-3-3-3--|--1-1-1-1-1-1-1-1-1-1--|
E|--0-0-0-0-0-0-0-0-0-0--|-----------------------|-----------------------|-----------------------|

[Outro]
4/4
    H              +Q.          E       H.                      E   E
G|-----------------------------------|-----------------------------------|
D|-----------------------------------|--------------------------5--------|
A|--4--------------------------------|--3---------------------------3----|
E|------------------------------4----|-----------------------------------|

    H.                      E   E       H              +E   E   E   E
G|-----------------------------------|-----------------------------------|
D|-----------------------------------|-----------------------------------|
A|--1-----------------------3---1----|--------------------------3---6----|
E|-----------------------------------|--4-------------------4------------|

    H              +Q.          E       W
G|-----------------------------------|-----------------------------------|
D|-----------------------------------|-----------------------------------|
A|--4--------------------------------|--3--------------------------------|
E|------------------------------4----|-----------------------------------|

    W                                   H.                      E   E
G|-----------------------------------|-----------------------------------|
D|-----------------------------------|-----------------------------------|
A|--1--------------------------------|------------------------------3----|
E|-----------------------------------|--4-----------------------4--------|

    H              +Q.          E       W
G|-----------------------------------|-----------------------------------|
D|-----------------------------------|-----------------------------------|
A|--4--------------------------------|--3--------------------------------|
E|------------------------------4----|-----------------------------------|

    W                                   H              +E   E   E   E
G|-----------------------------------|-----------------------------------|
D|-----------------------------------|-----------------------------------|
A|--1--------------------------------|------------------------------3----|
E|-----------------------------------|--4-------------------6---4--------|

    H.                      E   E       W
G|-----------------------------------|-----------------------------------|
D|--------------------------6--------|-----------------------------------|
A|--4---------------------------4----|--3--------------------------------|
E|-----------------------------------|-----------------------------------|

    H.                      E   E       H              +E   E   E   E
G|-----------------------------------|-----------------------------------|
D|-----------------------------------|-----------------------------------|
A|--1-----------------------3---1----|----------------------4-------3----|
E|-----------------------------------|--4-----------------------4--------|

    H              +Q.          E       W
G|-----------------------------------|-----------------------------------|
D|-----------------------------------|-----------------------------------|
A|--4--------------------------------|--3--------------------------------|
E|------------------------------4----|-----------------------------------|

    H.                      E   E       H.                      E   E
G|-----------------------------------|-----------------------------------|
D|-----------------------------------|-----------------------------------|
A|--1-----------------------3---1----|-----------------------------------|
E|-----------------------------------|--4-----------------------6---4----|

    H              +Q.          E       W
G|-----------------------------------|-----------------------------------|
D|-----------------------------------|-----------------------------------|
A|--4--------------------------------|--3--------------------------------|
E|------------------------------4----|-----------------------------------|

    H.                      E   E       H               E   E   E   E 
G|-----------------------------------|-----------------------------------|
D|-----------------------------------|-----------------------------------|
A|--1-----------------------3---1----|------------------------------3----|
E|-----------------------------------|--4---------------4---6---4--------|

    H              +Q.          E       H              +E   E   E   E
G|-----------------------------------|-----------------------------------|
D|-----------------------------------|----------------------5---5--------|
A|--4--------------------------------|--3---------------------------3----|
E|------------------------------4----|-----------------------------------|

    H.                      E   E       H               E   E   E   E
G|-----------------------------------|-----------------------------------|
D|-----------------------------------|-----------------------------------|
A|--1---------------------------1----|------------------------------3----|
E|--------------------------1--------|--4---------------4---6---4--------|

    H              +Q.          E       W
G|-----------------------------------|-----------------------------------|
D|-----------------------------------|-----------------------------------|
A|--4--------------------------------|--3--------------------------------|
E|------------------------------4----|-----------------------------------|

    -
G|-----------------------------------||
D|-----------------------------------||
A|-----------------------------------||
E|--0--------------------------------||

************************************

|  \   Slide down
|  /   Slide up
|  S   Sixteenth note
|  E   Eighth note
|  Q   Quarter note
|  H   Half note
|  W   Whole note
|  .   Dotted note
| (N)  Rest
|  +   Add note value
|o o|  Reprise

************************************
Suggest correction
Creating personal tab
Creating personal tab
You can edit any tab online and save it as your Personal.

You can edit, replace or remove any tab part or add personal notes – all changes will be seen only by you.

Personal tabs can be accessed anytime from any device, even offline.
Learn more »
Give kudos to tab author, rate the tab!
1 2 3 4 5
comments
print report bad tab
guest
You may want to rate the tab now too:
select rating
Wanna post a correction for this tab? Suggest correction