Oops, an error
Loading. Please wait.

Gravity Eyelids tab

version 2
version 2

Whole song

112 views 3 this week
no commentswrite comment
1 2 3 4 5
3 more votes to show rating
add to favorites
×
Save as Personal and add changes to this tab that will be seen only by you. Learn more ›
×
You can save this tab as Personal to edit and correct it or add notes. All changes will be seen only by you. Learn more »
launch autoscroll
font size
0
reset
how to read this tab
guitar tuner
edit
Autoscroll
slow
fast
+/-
esc
set tempo
stop
Artist: Porcupine Tree 
Song: Gravity Eyelids
Album: In Absentia (2002)

Guitar 1 (E A D G B e) - 'Steven Wilson - Clean'
Guitar 2 (E A D G B e) - 'Steven Wilson - Distortion'
Guitar 3 (E A D G B e) - 'Steven Wilson - Distortion w/ Delay'

Q = 83bpm
4/4
[Verse] 
(Chord Progression: Only play first two chords for last round of progression)
E  Am  F  Bb

[Chorus] 
(Chord Progression: Only play first two chords for last round of progression)
C#m  C  Bb Ab

[Chorus 1]
  (Gtr 3) (faint)                                                               
    W                                    +W                             
e|--12~------------------------------|--(12)-----------------------------|
B|o----------------------------------|-----------------------------------|
G|-----------------------------------|-----------------------------------|
D|-----------------------------------|-----------------------------------|
A|o----------------------------------|-----------------------------------|
E|-----------------------------------|-----------------------------------|

    W                                   W                                (x3)
e|--13~------------------------------|--15~------------------------------|
B|-----------------------------------|----------------------------------o|
G|-----------------------------------|-----------------------------------|
D|-----------------------------------|-----------------------------------|
A|-----------------------------------|----------------------------------o|
E|-----------------------------------|-----------------------------------|

    W                                    +W                             
e|--12~------------------------------|--(12)-----------------------------|
B|-----------------------------------|-----------------------------------|
G|-----------------------------------|-----------------------------------|
D|-----------------------------------|-----------------------------------|
A|-----------------------------------|-----------------------------------|
E|-----------------------------------|-----------------------------------|

[Verse 2]
  (Gtr 3)                                                                
    W                                    +W                             
e|--12~------------------------------|--(12)-----------------------------|
B|o----------------------------------|-----------------------------------|
G|-----------------------------------|-----------------------------------|
D|-----------------------------------|-----------------------------------|
A|o----------------------------------|-----------------------------------|
E|-----------------------------------|-----------------------------------|

    W                                    +W                              (x2)
e|--13~------------------------------|--(13)-----------------------------|
B|-----------------------------------|----------------------------------o|
G|-----------------------------------|-----------------------------------|
D|-----------------------------------|-----------------------------------|
A|-----------------------------------|----------------------------------o|
E|-----------------------------------|-----------------------------------|

    W                                    W                             
e|--12~------------------------------|--\9~------------------------------|
B|-----------------------------------|-----------------------------------|
G|-----------------------------------|-----------------------------------|
D|-----------------------------------|-----------------------------------|
A|-----------------------------------|-----------------------------------|
E|-----------------------------------|-----------------------------------|

    W                                    +W                             
e|--10~------------------------------|--(10)-----------------------------|
B|-----------------------------------|-----------------------------------|
G|-----------------------------------|-----------------------------------|
D|-----------------------------------|-----------------------------------|
A|-----------------------------------|-----------------------------------|
E|-----------------------------------|-----------------------------------|

[Chorus 2]
  (Gtr 1)
    W                                   W                      
e|--4--------------------------------|--3--------------------------------|
B|o-5--------------------------------|--3--------------------------------|
G|--6--------------------------------|--0--------------------------------|
D|--6--------------------------------|--x--------------------------------|
A|o-4--------------------------------|--3--------------------------------|
E|-----------------------------------|-----------------------------------|
 |                                   |                                   |
 |(Gtr 3)                            |                                   |
 |  W                                |   +W                              |
e|--12~------------------------------|--(12)-----------------------------|
B|o----------------------------------|-----------------------------------|
G|-----------------------------------|-----------------------------------|
D|-----------------------------------|-----------------------------------|
A|o----------------------------------|-----------------------------------|
E|-----------------------------------|-----------------------------------|

    W                                   W                                (x3)
e|--1--------------------------------|-----------------------------------|
B|--1--------------------------------|--4-------------------------------o|
G|--0--------------------------------|--5--------------------------------|
D|--x--------------------------------|--6--------------------------------|
A|--1--------------------------------|--6-------------------------------o|
E|-----------------------------------|--4--------------------------------|
 |                                   |                                   |
 |  W                                |  W                                |
e|--13~------------------------------|--15~------------------------------|
B|-----------------------------------|----------------------------------o|
G|-----------------------------------|-----------------------------------|
D|-----------------------------------|-----------------------------------|
A|-----------------------------------|----------------------------------o|
E|-----------------------------------|-----------------------------------|

    W                                   W                      
e|--4--------------------------------|--3--------------------------------|
B|--5--------------------------------|--3--------------------------------|
G|--6--------------------------------|--0--------------------------------|
D|--6--------------------------------|--x--------------------------------|
A|--4--------------------------------|--3--------------------------------|
E|-----------------------------------|-----------------------------------|
 |                                   |                                   |
 |  W                                |   +W                              |
e|--12~------------------------------|--(12)-----------------------------|
B|-----------------------------------|-----------------------------------|
G|-----------------------------------|-----------------------------------|
D|-----------------------------------|-----------------------------------|
A|-----------------------------------|-----------------------------------|
E|-----------------------------------|-----------------------------------|

[Interlude]
  (Gtr 2)
    S S S S (E) S S S S (E) S S (E)    (W)
e|-----------------------------------|-----------------------------------|
B|o----------------------------------|-----------------------------------|
G|-----------------------------------|-----------------------------------|
D|-----------------------------------|-----------------------------------|
A|o---7-5-----------5----------------|-----------------------------------|
E|--0-----6-----5-6---6-----5-3------|-----------------------------------|
PM  . . . .     . . . .     . .      |                                   |

    S S S S (E) S S S S (E) S S (E)    (H)             S S S(S) S S S(S) (x2)
e|-----------------------------------|-----------------------------------|
B|-----------------------------------|----------------------------------o|
G|-----------------------------------|-----------------------------------|
D|-----------------------------------|-----------------------------------|
A|----7-5-----------5----------------|-----------------7-7-5------------o|
E|--0-----6-----5-6---6-----5-3------|--------------------------6-5-6----|
PM  . . . .     . . . .     . .      |                 . . .    . . .    |

    S S S E   S S S S E.    S E.        E   S E   S E.   S E    S S E   
e|-----------------------------------|-----------------------------------|
B|o----------------------------------|-----------------------------------|
G|-----------------------------------|-----------------------------------|
D|-----------------------------------|--2---2-5---5-7--------------------|
A|o---7-5-----------5----------------|--2---2-5---5-7----7-5-------------|
E|--0-----6---6-5-6---6-----5-3------|--0---0-3---3-5-----------6-5-6----|

    S S S E   S S S S E.    S E.        E   S E   S E.   S E    S S E   (x4)
e|-----------------------------------|-----------------------------------|
B|-----------------------------------|----------------------------------o|
G|-----------------------------------|-----------------------------------|
D|-----------------------------------|--2---2-5---5-7--------------------|
A|----7-5-----------5----------------|--2---2-5---5-7----7-5------------o|
E|--0-----6---6-5-6---6-----5-3------|--0---0-3---3-5-----------6-5-6----|

 5/8
    Q       E.    E.        Q       E.    E.        Q       E.    E.        Q       E.    E.      
e|-----------------------|-----------------------|-----------------------|-----------------------|
B|o----------------------|-----------------------|-----------------------|-----------------------|
G|--9-------9-----9------|--6-------6-----6------|--5-------5-----5------|--3-------3-----3------|
D|--9-------9-----9------|--6-------6-----6------|--5-------5-----5------|--3-------3-----3------|
A|o-7-------7-----7------|--4-------4-----4------|--3-------3-----3------|--1-------1-----1------|
E|-----------------------|-----------------------|-----------------------|-----------------------|

    Q       E.    E.        Q       E.    E.        Q       E.    E.        Q       E.    E.     (x2)
e|-----------------------|-----------------------|-----------------------|-----------------------|
B|-----------------------|-----------------------|-----------------------|----------------------o|
G|--9-------9-----9------|--6-------6-----6------|--5-------5-----5------|--3--------------------|
D|--9-------9-----9------|--6-------6-----6------|--5-------5-----5------|--3-------3-----3------|
A|--7-------7-----7------|--4-------4-----4------|--3-------3-----3------|--1-------3-----3-----o|
E|-----------------------|-----------------------|-----------------------|----------1-----1------|

    Q       E.    E.        Q       E.    E.        Q       E.    E.        Q       E.    E.     (x2)
e|-----------------------|-----------------------|-----------------------|-----------------------|
B|o----------------------|-----------------------|-----------------------|----------------------o|
G|--9-------9-----9------|--6-------6-----6------|--5-------5-----5------|--3-------3-----3------|
D|--9-------9-----9------|--6-------6-----6------|--5-------5-----5------|--3-------3-----3------|
A|o-7-------7-----7------|--4-------4-----4------|--3-------3-----3------|--1-------1-----1-----o|
E|-----------------------|-----------------------|-----------------------|-----------------------|

[Outro]
4/4
  (Gtr 1)
    W                                   W                      
e|--4--------------------------------|--3--------------------------------|
B|o-5--------------------------------|--3--------------------------------|
G|--6--------------------------------|--0--------------------------------|
D|--6--------------------------------|--x--------------------------------|
A|o-4--------------------------------|--3--------------------------------|
E|-----------------------------------|-----------------------------------|
 |                                   |                                   |     (Repeat first half after
 |(Gtr 2)                            |                                   |            7th round)
 |  H.                      Q        |  H.                      Q        |
e|-----------------------------------|-----------------------------------|
B|o----------------------------------|-----------------------------------|
G|-----------------------------------|-----------------------------------|
D|-----------------------------------|-----------------------------------|
A|o-4-----------------------4--------|--3-----------------------3--------|
E|-----------------------------------|-----------------------------------|

    W                                   W                                (x7)
e|--1--------------------------------|-----------------------------------|
B|--1--------------------------------|--4-------------------------------o|
G|--0--------------------------------|--5--------------------------------|
D|--x--------------------------------|--6--------------------------------|
A|--1--------------------------------|--6-------------------------------o|
E|-----------------------------------|--4--------------------------------|
 |                                   |                                   |
 |  H.                      Q        |  H.                      Q        |
e|-----------------------------------|-----------------------------------|
B|-----------------------------------|----------------------------------o|
G|-----------------------------------|-----------------------------------|
D|-----------------------------------|-----------------------------------|
A|--1-----------------------1--------|----------------------------------o|
E|-----------------------------------|--4-----------------------4--------|

[Solo] 
(Begins on 5th round of above progression)
  (Gtr 3)                                                               
    W                                    +W                             
e|--12~------------------------------|--(12)-----------------------------|
B|-----------------------------------|-----------------------------------|
G|-----------------------------------|-----------------------------------|
D|-----------------------------------|-----------------------------------|
A|-----------------------------------|-----------------------------------|
E|-----------------------------------|-----------------------------------|
                                                               
    H               +E  Q.              E  E  H.                             
e|--13~------------(13)\10-----------|--10h11p10~------------------------|
B|-----------------------------------|-----------------------------------|
G|-----------------------------------|-----------------------------------|
D|-----------------------------------|-----------------------------------|
A|-----------------------------------|-----------------------------------|
E|-----------------------------------|-----------------------------------|

    H               +E  Q.              W                             
e|--12~------------(12)/16-----------|--15~------------------------------|
B|-----------------------------------|-----------------------------------|
G|-----------------------------------|-----------------------------------|
D|-----------------------------------|-----------------------------------|
A|-----------------------------------|-----------------------------------|
E|-----------------------------------|-----------------------------------|

    H               +E  E.    E.         E  Q.          H                  
e|--13~------------(13)-15----13-----|--/16-15~--------(15)--------------|
B|-----------------------------------|-----------------------------------|
G|-----------------------------------|-----------------------------------|
D|-----------------------------------|-----------------------------------|
A|-----------------------------------|-----------------------------------|
E|-----------------------------------|-----------------------------------|

    (Q.)        Q.          Q           H.                      Q        
e|--------------16----------16-------|--15~---------------------15-------|
B|-----------------------------------|-----------------------------------|
G|-----------------------------------|-----------------------------------|
D|-----------------------------------|-----------------------------------|
A|-----------------------------------|-----------------------------------|
E|-----------------------------------|-----------------------------------|

    Q.         Q       E   S  S  E       +E  Q.         +H                    
e|--13~-------\10------11--11p10h11--|--(11)p10~-------(10)--------------|
B|-----------------------------------|-----------------------------------|
G|-----------------------------------|-----------------------------------|
D|-----------------------------------|-----------------------------------|
A|-----------------------------------|-----------------------------------|
E|-----------------------------------|-----------------------------------|

     Q.           E    +H               W                                    
e|--/12~-----------------------------|-----------------------------------|
B|---------------\14~-(14)-----------|--13~------------------------------|
G|-----------------------------------|-----------------------------------|
D|-----------------------------------|-----------------------------------|
A|-----------------------------------|-----------------------------------|
E|-----------------------------------|-----------------------------------|

    -                                                                 
e|-----------------------------------|
B|--12~------------------------------|
G|-----------------------------------|
D|-----------------------------------|
A|-----------------------------------|
E|-----------------------------------|




************************************
Notation Legend

| (n)  Ghost note
| ~    Vibrato
| \    Slide down
| x    Dead note
| PM   Palm mute
| h    Hammer-on
| p    Pull-off
| /    Slide up
|o o|  Reprise

************************************

************************************
Note Legend

|  T   Thirty-second note
|  S   Sixteenth note
|  E   Eighth note
|  Q   Quarter note
|  H   Half note
|  W   Whole note
|  D   Double note
|  .   Dotted note
|  (N) Rest

************************************

            
            
Suggest correction
Creating personal tab
Creating personal tab
You can edit any tab online and save it as your Personal.

You can edit, replace or remove any tab part or add personal notes – all changes will be seen only by you.

Personal tabs can be accessed anytime from any device, even offline.
Learn more »
Give kudos to tab author, rate the tab!
1 2 3 4 5
comments
print report bad tab
guest
You may want to rate the tab now too:
select rating
Wanna post a correction for this tab? Suggest correction