Oops, an error
Loading. Please wait.

Halo bass

version 1
version 1

Whole song

Interactive

14,838 views 9 this week
3 commentsread comments
1 2 3 4 5
x 3
add to favorites
×
Save as Personal and add changes to this tab that will be seen only by you. Learn more ›
×
You can save this tab as Personal to edit and correct it or add notes. All changes will be seen only by you. Learn more »
launch autoscroll
font size
0
reset
guitar tuner
edit
Autoscroll
slow
fast
+/-
esc
set tempo
stop
Author
Artist: Porcupine Tree
Song: Halo
Tuning: Standard (EADG)
Tabber: LaggingTom


Verse: x3                           

G||----------------------------------|--------------------7---7/8------|
D||----------------------7-5h7p5-----|----------------------x------5b--|
A||--------------------7---------7-5-|---------------------------------|
E||--0---0-0---0-0---0---------------|--0-0---0-0---0-0----------------|


|------------------------------------|----------------------8p-7-0-5b---|
|------------------------7-5h7p5-----|----------------------------------|
|----------------------7---------7-5-|----------------------------------|
|--0-0---0-0---0-0---0---------------|--0-0---0-0---0-0---0-------------|


|----------------------------------|--------------------7---7/8------|
|----------------------7-5h7p5-----|----------------------x------5b--|
|--------------------7---------7-5-|---------------------------------|
|--0---0-0---0-0---0---------------|--0-0---0-0---0-0----------------|


|------------------------------------|---------------------------5b--||
|------------------------7-5h7p5-----|----------------------7---6----||
|----------------------7---------7-5-|-------------------------7-----||
|--0-0---0-0---0-0---0---------------|--0-0---0-0---0-0---0----------||



Chorus:

||----------------------------------------------------------|
||----------------------------------------------------------|
||----------------------------------------------------------|
||--5-5--5-5--5-5--5-5-5-5--5-5-5-5--5-5--5-5-3--3-3-3--3-3-|


|------------------------------------|------------------------------------|
|------------------------7-5h7p5-----|------------------------7-5h7p5-----|
|----------------------7---------7-5-|----------------------7---------7-5-|
|--0-0---0-0---0-0---0---------------|--0-0---0-0---0-0---0---------------|


|----------------------------------------------------------|
|----------------------------------------------------------|
|----------------------------------------------------------|
|--5-5--5-5--5-5--5-5-5-5--5-5-5-5--5-5--5-5-3--3-3-3--3-3-|


|------------------------------------|--------------------------------|
|------------------------7-5h7p5-----|----------------------/5--5--5--|
|----------------------7---------7-5-|--------------------------------|
|--0-0---0-0---0-0---0---------------|--0-0---0-0---0-0---0-----------|


|----------------------------------------------------------||
|----------------------------------------------------------||
|----------------------------------------------------------||
|--5-5--5-5--5-5--5-5-5-5--5-5-5-5--5-5--5-5-3--3-3-3--3-3-||


Verse x2


Chorus x2


Interlude Pt. 1: x4

||---------------------------------------|------------------------------------||
||-----------------------------5----7----|------------------------------------||
||---5-7-------5-7-------5-7-------------|--5-7-------5-7-------5-7-----------||
||---------0---------0-------------------|--------0---------0---------6---5---||


Interlude Pt. 2: x2
   
||-------------------------------|---------------------------7--6-||
||---------------------------8-7-|--------------------------------||
||---10-7--7--10-7--7--10-7------|---10-7--7--10-7--7--10-7-------|| 
||-------------------------------|--------------------------------||


Interlude Pt. 1 x4


Interlude Pt. 2 x4


Alternate Chorus:

Rest 8 measures (until 4:00)

||----------------------------------------------------------|
||----------------------------------------------------------|
||----------------------------------------------------------|
||--5-5--5-5--5-5--5-5-5-5--5-5-5-5--5-5--5-5-3--3-3-3--3-3-|


|-------------------------------------------------------------------|
|-------------------------------------------------------------------|
|-------------------------------------------------------------------|
|---0-0---0-0---0-0---0-0---0-0---0-0---0-0---0-0---0-0---0-0---0-0-|


Alternate Chorus Pt. 2: x2

|-------------------------------------------------------------------|
|-------------------------------------------------------------------|
|-------------------------------------------------------------------|
|---5-5---5-5---5-5---5-5---5-5---5-5---5-5---5-5---3-3---3-3---3-3-|


|------------------------------------|------------------------------------|
|------------------------7-5h7p5-----|------------------------7-5h7p5-----|
|----------------------7---------7-5-|----------------------7---------7-5-|
|--0-0---0-0---0-0---0---------------|--0-0---0-0---0-0---0---------------|




Tablature Legend
----------------
h - hammer on
p - pull off
b - bend
Suggest correction
Creating personal tab
Creating personal tab
You can edit any tab online and save it as your Personal.

You can edit, replace or remove any tab part or add personal notes – all changes will be seen only by you.

Personal tabs can be accessed anytime from any device, even offline.
Learn more »
Give kudos to tab author, rate the tab!
1 2 3 4 5
comments
print report bad tab
3 comments total.
+1 reply
Darkmeteor 10 May 23, 2009 09:30 AM

I think instead of 5h7p5 it should be 5h6p5

+1 reply
humanbaser 10 Mar 04, 2010 08:40 AM

actually it looks like this

|------------------------------------|
|-----------------------7-5h7p5------|
|------------------5-6----------6-5--|
|0-0---0-0---0-0---------------------|

0 reply
edgeyyz 30 Nov 19, 2011 12:08 PM

I agree with humanbaser, that way sounds right. Besides that, everything else in the tab is great.

guest
You may want to rate the tab now too:
select rating
Wanna post a correction for this tab? Suggest correction