Oops, an error
Loading. Please wait.

Hatesong Bass

version 1
version 1

Whole song

Interactive

11,618 views 27 this week
2 commentsread comments
1 2 3 4 5
x 3
add to favorites
launch autoscroll
font size
0
reset
guitar tuner
×
Best way to learn
"Hatesong"
Autoscroll
slow
fast
+/-
esc
set tempo
stop
[These are the riffs]
G|----------------------------------|---------------------------+12---------|
D|-----------------------------4----|------------------------+12------------|
A|-2---2---0-----2---2--0--2--------|-2---2---0------2---2/-------+12-------|
E|---2--------2----2--------------2-|---2---------2----2--------------7\--2-|

G|----------------------------------|------------------------------7--------|
D|----------------------------------|--------------------------7h9---9------|
A|-2---2---0-----2---2--0--2--------|-2---2--0----2----2-0--7h9-------------|
E|---2--------2----2--------------2-|---2-------2---2---------------------2-|

G|----------------------------------|---------------------------------------|
D|----------------------------------|---------------------------------------|
A|-2---2---0-----2---2--0--2--------|-2---2---0------2---2------------------|
E|---2--------2----2--------------2-|---2----------2---2---2b---0---2-----2-|
(i tabbed this at work without a bass, so its not exactly right, but its basically it)

[Chorus]
G|----------------------------------|---------------------------------------|
D|----------------------------------|-------------------------------5-------|
A|7----7-7-------7----------7----7-0|3-----3-----------3--------3---------0-|
E|----------------------------------|---------------------------------------|

G|---------------------------------|---------------------------------4------|
D|----------------------------------|---------------------------------------|
A|2----2-2-------2----------2----1-0|2-----2-----------2---------2-------0/7|
E|----------------------------------|---------------------------------------|

G|----------------------------------|---------------------------------------|
D|----------------------------------|-------------------------------5-------|
A|7----7-7-------7----------7----7-0|3-----3-----------3----------3-------0-|
E|----------------------------------|---------------------------------------|

G|----------------------------------|------7--------------------------------|
D|----------------------------------|-------------------------------7-------|
A|2----2-2-------2----------2------0|5-----------------5---------5-------5/2|
E|----------------------------------|---------------------------------------|

G|----------------------------------|---------------------------------------|
D|----------------------------------|-------------------------------5/------|
A|0----0-0-------0----------2--2-4-5|7------7-----0---0---------------------|
E|----------------------------------|---------------------------------------|

G|---------------------------------------------------------------------------|
D|---------------------------------------------------------------------------|
A|--0-2-2-0-2-0-3-----0-2-2-0-2-0-3-----0-2-2-0-2-0-3----0-2-2-0-2-0-3-------|
E|---------------------------------------------------------------------------|

G|----------------------------------------------------|
D|----------------------------------------------------|
A|--0-2-2-0-2-0-3-----0-2-2-0-2-0-3-----------3-3-3p0-|
E|--------------------------------------2--3----------|

************************************

| /  Slide up
| \  Slide down
| h  Hammer-on
| b  Bend
| p  Pull-off
| +  

************************************
Suggest correction
Give kudos to tab author, rate the tab!
1 2 3 4 5
comments
print report bad tab
2 comments total.
0 reply
Zoso518 154 Apr 18, 2010 10:21 AM

A few things that appear to be needed.

The verse repeats the intro quite a while. You'll hear when it goes into the chorus. And for the solo you repeat the last part of the 0220203 thing.

As for some corrections, I'm hearing this in the harmonic part of the verse.

|---------------(5)----|
|-------------(5)-(5)--|
|2-2--0--2-2-------(5)-|
|-2-2-----2-2----------|

0 reply
Stormx 408 May 03, 2010 10:01 AM

In "Arriving Somewhere..." the harmonic is thus:

|------------(7)-------(9)|
|--------------(9)-(9.5)--|
|2-2--0--2-2-----(9)------|
|-2-2-----2-2-------------|

guest
You may want to rate the tab now too:
select rating
Wanna post a correction for this tab? Suggest correction