Oops, an error
Loading. Please wait.

Heart Attack In A Layby tab

version 1
version 1

Whole song

  • This tab is not correct to how the song was record... Show more

Interactive

76 views 9 this week
no commentswrite comment
1 2 3 4 5
2 more votes to show rating
add to favorites
×
Save as Personal and add changes to this tab that will be seen only by you. Learn more ›
×
You can save this tab as Personal to edit and correct it or add notes. All changes will be seen only by you. Learn more »
launch autoscroll
font size
0
reset
how to read this tab
guitar tuner
edit
Autoscroll
slow
fast
+/-
esc
set tempo
stop
About this tab version
This tab is not correct to how the song was recorded. This tab is recommended for less experienced players as the actual song uses a very odd tuning. Was this info helpful? Yes No
Artist: Porcupine Tree
Song: Heart Attack In A Layby
Album: In Absentia (2002)

Disclaimer: This tab does not use the tuning that can be seen being used in the live version.
This tab is in standard tuning (while I figure out the song properly) and so will not sound
100% accurate.

Guitar 1 (E A D G B e) - 'Steven Wilson - Clean'
Guitar 2 (E A D G B e) - 'Steven Wilson - Acoustic (Left Channel)'
Guitar 3 (E A D G B e) - 'Steven Wilson - Acoustic (Right Channel)'

[Intro]
4/4
  (Guitar 1)
    S S S S S S S E.    S S +Q          S S S S S S S E.    S E.    S S
e|------4---4-5---2------------------|------4---4-5---2------------------|
B|--------2--------------------------|--------2--------------------------|
G|----------------------4------------|----------------------4-------4----|
D|----4---------4---------4-(4)------|----4---------4---------4-------4--|
A|-----------------------------------|-----------------------------------|
E|--2--------------------------------|--2--------------------------------|

    S S S S S S S E.    S E.    S S     S S S S S S S E.    S S +Q
e|------4---4-5---2------------------|------4---4-7---2------------------|
B|--------0-----0-------0-------0----|--------0-------------0------------|
G|----2-------------------2-------2--|----2---------2---------2-(2)------|
D|--0--------------------------------|--0--------------------------------|
A|-----------------------------------|-----------------------------------|
E|-----------------------------------|-----------------------------------|

[Main Progression] 
(This entire section is played 3 times.)
  (Gtr 1)
    S S S S S S S E.    S E.    S S     S S S S S S S E.    S E.    S S
e|------4---4-5---2------------------|------4---4-5---2------------------|
B|o-------2--------------------------|--------2--------------------------|
G|----------------------4-------4----|----------------------4-------4----|
D|----4---------4---------4-------4--|----4---------4---------4-------4--|
A|o----------------------------------|-----------------------------------|
E|--2--------------------------------|--2--------------------------------|

    S S S S S S S E.    S E.    S S     S S S S S S S E.    S E.    S S  x2
e|------4---4-5---2------------------|------4---4-7---2------------------|
B|--------0-----0-------0-------0----|--------0-------------0-------0---o|
G|----2-------------------2-------2--|----2---------2---------2-------2--|
D|--0--------------------------------|--0--------------------------------|
A|-----------------------------------|----------------------------------o|
E|-----------------------------------|-----------------------------------|

    S S S S S S S E.    S S +Q          S S S S S S S E.    S E.    S S
e|------4---4-5---2------------------|------4---4-7---2------------------|
B|--------2--------------------------|-----------------------------------|
G|----------------------4------------|----------------------4-------4----|
D|----4---------4---------4-(4)------|----2---2-----2---------4-------4--|
A|-----------------------------------|-----------------------------------|
E|--2--------------------------------|--0--------------------------------|

  (Gtr 1)
    W                                     W
e|-------------------------------------|-------------------------------------|
B|-------------------------------------|-------------------------------------|  [Gtr 1 is extremely difficult
G|-------------------------------------|-------------------------------------|          to hear here.
D|-------------------------------------|-------------------------------------|    I will try to update this 
A|--5----------------------------------|--2----------------------------------|     if I figure out what is 
E|-------------------------------------|-------------------------------------|          being played]
 |                                     |                                     |
 |(Gtr 2 & 3)                          |                                     |
 | (E)  S S S E   E.   +E   T T S S S  | (E)  S S S E   E.    +E  T T S S S  |
e|------7-7-7-9-------------------4----|------9-9-9-12--10---(10)-------9----|
B|------x-x-x-x---9----(9)------3---3--|------x-x-x-x---x-------------7---7--|
G|------7-7-7-9---7----(7)--0h2--------|------9-9-9-11--11---(11)-0h6--------|
D|-------------------------------------|-------------------------------------|
A|-------------------------------------|-------------------------------------|
E|-------------------------------------|-------------------------------------|

    W                                     W                              [S]
e|-------------------------------------|-------------------------------------|
B|-------------------------------------|-------------------------------------|
G|-------------------------------------|-------------------------------------|
D|-------------------------------------|-------------------------------------|
A|--5----------------------------------|--4----------------------------------|  [On 3rd round add this note
E|-------------------------------------|---------------------------------[0]-|  which leads into the ending]
 |                                     |                                     |
 | (E)  S S S E   E.   +E   T T S S S  |  S S S S +Q     S S S S +Q          |
e|------7-7-7-9-------------------4----|--------4-(4)----------4-(4)---------|
B|------x-x-x-x---9----(9)------3---3--|-------------------------------------|
G|------7-7-7-9---7----(7)--0h2--------|------6--------------6---------------|
D|-------------------------------------|----6--------------6-----------------|
A|-------------------------------------|--4--------------4-------------------|
E|-------------------------------------|-------------------------------------|

[Ending]
  (Gtr 1)
e|-----------------------------------|
B|-----------------------------------|
G|-----------------------------------|
D|-----------------------------------|
A|-----------------------------------|
E|--2--------------------------------|


************************************
Notation Legend

| (n)  Ghost note
| ~    Vibrato
| x    Dead note
| h    Hammer-on
| p    Pull-off
|o o|  Reprise

************************************

************************************
Note Legend

|  T   Thirty-second note
|  S   Sixteenth note
|  E   Eighth note
|  Q   Quarter note
|  H   Half note
|  W   Whole note
|  D   Double note
|  .   Dotted note
|  (N) Rest
|  +   Add note length

************************************
Suggest correction
Creating personal tab
Creating personal tab
You can edit any tab online and save it as your Personal.

You can edit, replace or remove any tab part or add personal notes – all changes will be seen only by you.

Personal tabs can be accessed anytime from any device, even offline.
Learn more »
Give kudos to tab author, rate the tab!
1 2 3 4 5
comments
print report bad tab
guest
You may want to rate the tab now too:
select rating
Wanna post a correction for this tab? Suggest correction