Oops, an error
Loading. Please wait.

Last Chance To Evacuate Planet Earth Before It Is Recycled bass

version 1
version 1

Whole song

Interactive

466 views 6 this week
no commentswrite comment
1 2 3 4 5
1 last vote to show rating
add to favorites
×
Save as Personal and add changes to this tab that will be seen only by you. Learn more ›
×
You can save this tab as Personal to edit and correct it or add notes. All changes will be seen only by you. Learn more »
launch autoscroll
font size
0
reset
guitar tuner
edit
Autoscroll
slow
fast
+/-
esc
set tempo
stop
Author
Difficulty
   Porcupine Tree - Last Chance to Evacuate Planet Earth  Before It Is Recycled                      


This is a really cool, haunting song by Porcupine Tree from Lightbulb Sun(2000).
It uses a fretless bass, but don't worry if you don't have one. It just won't sound as bwah-y!


Regarding the second line harmonics: to do this, hit normal 7th and then 5th fret harmonic, then from 5 
slide to the 3rd fret.  The harmonic itself should slide! This still works on fretted basses, it's just 
much quieter. Lastly I added timestamps to the latter section because it's easy to get lost!


(1.01) Bass interlude.

      Q.      E  H            E   E   E   E  Q     Q        W                 
G||-----------------------|-----------------------------|--------------------|
D||-----------------------|-----------------------14----|--15----------------|
A||----------12--L--------|--------------12--L----------|--------------------|
E||--10-------L--L--------|--13--12--13-----------------|--------------------|



                                                     
    Q.       E    H            W                    E   E   E   E  Q     Q     
---------------------------|--------------------|-----------------------------|
--<>7------<>5--<>3--------|--------------------|-----------------------14----|
---------------------------|--------------------|--------------12--L----------|
---------------------------|--10----------------|--13--12--13-----------------|


     
                                                         (2.52) Enter

   Q.      E  H             W                               Q.     E  E  E   
------------------------|--------------------|-----------|------------------|
--15--------------------|--------------------|-----------|------------7-----|
------------------------|--------------------|-----------|--5------L--------|
----------13--LS--------|--15----------------|-----------|---------------5--|



  Q.     Q    E     Q.     E  E  E     Q.     Q    E     Q.     E  E  E   
-----------------|------------------|-----------------|------------------|
-----------------|------------------|-----------------|------------------|
-----------------|------------5-----|--------------3--|--5------L--8-----|
--6------L----5--|--3------L-----3--|--1------3-------|---------------5--|




  Q.     Q.        Q.     E  E  E     Q.     E  E  E     Q.     E  E  E   
----------------|------------------|---------5--------|------------------|
----------------|---------------3--|--3---------------|------------------|
----------------|------------5-----|------------3-----|--5------L--8-----|
--6------5------|--3------L--------|---------------5--|---------------5--|


                                                        (3.15)

  Q.     Q.        Q.     E  E  E     Q.      E  E  E     Q.     E  E  E   
----------------|------------------|-------------------|------------------|
----------------|---------------5--|-------------------|------------------|
----------------|------------5-----|-------------0--3--|--5------L--8-----|
--6------5------|--3------L--------|--1S------3--------|---------------5--|

                                                        


  Q.     E  E  E     Q.     E  E  E     Q.     E  E  E     Q.     E  E  E   
------------------|------------------|---------5--------|------------------|
------------------|---------------5--|--3---------------|------------------|
------------8-----|------------5-----|------------3-----|--5------L--8-----|
--6------L-----5--|--3------L--------|---------------5--|---------------5--|


  Q.     Q.        Q.     E  E  E     Q.      E  E  E     Q.     E  E  E   
----------------|------------------|-------------------|------------------|
----------------|---------------5--|-------------------|------------------|
----------------|------------5-----|-------------0--3--|--5------L--8-----|
--6------5------|--3------L--------|--1S------3--------|---------------5--|
 

                                                       (3.38) Vocals Re-enter

  Q.     Q.        Q.     E  E  E     E  S E  S E  E  E     Q.     E  E  E   
----------------|------------------|---------------------|------------------|
----------------|---------------5--|---------------------|------------------|
----------------|------------5-----|------------------3--|--5------L--8-----|
--6------5------|--3------3--------|--1--0-1--0-1--0-----|---------------5--|


  Q.     E  E  E     Q.     Q    E      E.  S S S E  E  E     Q.     E  E  E   
------------------|------------------|---------------------|------------------|
------------------|------------------|---------------------|------------------|
------------------|------------------|------------------3--|--5------L--8-----|
--6------L--8--5--|--3------L----5S--|--1---1---0-1--0-----|---------------5--|


  Q.     Q.        Q.     E  E  E     E.  S S S S S S S S S    Q.     E  E  E   
----------------|------------------|------------------------|------------------|
----------------|---------------3--|--5---5---3-5-5-3-----3-|------------------|
----------------|------------5-----|------------------5-3---|--5------L--------|
--6------5------|--3------L--------|------------------------|------------8--5--|


  Q.     E  E  E     Q.     E  E  E     E.  S S S E  E  E   
------------------|------------------|---------------------|
------------------|------------------|---------------------|
------------3-----|------------5-----|------------------3--|
--6------L-----5--|--3------L-----3--|--1---1---0-1--0-----|


(4.01)

  E.  S S S S S S S S S    E.  E  S  E  E  E     E.  E  S E  E  E    
------------------------|---------------------|---------------------|
----------------3-------|---------------------|-----------5--3------|
--5---5---0-3-5---5-3---|---------3-/5--3-----|------5--5-------5\--|
----------------------5-|--6---6-----------5--|--3------------------|


  E.  S S S S S E  S S    E.  S S S S S E  E     E.  E  S E  E  E   
-----------------------|----------------------|--------------------|
-----------------------|----------3-----------|--------------------|
------3---3---3------3-|--5---5-----5-3-------|--------------3-----|
--1---------1---1--0---|----------------5--3--|--6---6----6-----5--|


  E.  E  S S S S S S S    E.  E  S  E  E  E     E.  E  S S S S S S S  
-----------------------|---------------------|-----------------------|
-----------5-3---------|---------------3-----|---------------3-------|
------5--5-----5-3-----|------3--3-/5-----3--|--5---5--0-3-5---5-3---|
--3----------------5-3-|--1------------------|---------------------5-|


  E.  E  S  E  E  E     E.  E  S E  E  E     E.  E  S S S E  E   
---------------------|--------------------|---------------5-----|
---------------------|-----------5--5-----|--3---3----3-3----3--|
-----------/5--3-----|------5--5-------5--|---------3-----------|
--6---6-----------5--|--3-----------------|---------------------|



(4.24)

  E.  S S S  E  E  E     E.  E  S S S S  S  E     E.  E  S E  E  E   
----------------------|------------------------|--------------------|
----------7S-5--3-----|------------------------|-----------5--------|
--5---8------------5--|-----------5-3----------|------5--5----5-----|
----------------------|--6---6--6-----5S-6S-5--|--3--------------3--|


  E.  S S S E  E  E     E.  S S S S S S S E     E.  E  S E  E  E   
---------------------|-----------------------|--------------------|
---------------------|----------7-5-3--------|--------------------|
------3---3-------3--|--5---8---------5-3----|--------------3-----|
--1---------1--3-----|--------------------5--|--6---6----6-----5--|


  E.  S E  E  S S E     E.  E  S E  S S S S    H.              H.             
---------------------|----------------------|---------------|---------------||
--------------5-5----|--3---3----3--2-------|---------------|---------------||
------5----5------5--|----------------3-0-3-|--5------------|--L------------||
--3------------------|----------------------|---------------|---------------||




Duration Legend
---------------
W - whole
H - half
Q - quarter
E - 8th
S - 16th
T - 32nd
X - 64th
. - note dotted
|-n-|  - n-tuplets


Tablature Legend
----------------
L - tied note
x - dead note
g - grace note
(n) - ghost note
> - accentuded note
NH - natural harmonic
AH - artificial harmonic
TH - tapped harmonic
SH - semi harmonic
PH - pitch harmonic
h - hammer on
p - pull off
b - bend
br - bendRelease
pb - preBend
pbr - preBendRelease
brb - bendReleaseBend
\n/ - tremolo bar dip
\n - tremolo bar dive
-/n - tremolo bar Release up
/n\ - tremolo bar inverted dip
/n - tremolo bar return
-\n - tremolo bar Release down
S - shift slide
s - legato slide
/ -  slide into from below or out of upwards
\ -  slide into from above or out of downwards
~ - vibrato
W - wide vibrato
tr - trill
TP - tremolo picking
T - tapping
S - slap
P - pop
< - fade in
^ - brush up
v - brush down

            
            
Suggest correction
Creating personal tab
Creating personal tab
You can edit any tab online and save it as your Personal.

You can edit, replace or remove any tab part or add personal notes – all changes will be seen only by you.

Personal tabs can be accessed anytime from any device, even offline.
Learn more »
Give kudos to tab author, rate the tab!
1 2 3 4 5
comments
print report bad tab
guest
You may want to rate the tab now too:
select rating
Wanna post a correction for this tab? Suggest correction