Oops, an error
Loading. Please wait.

Lazarus tab

version 2
version 2

Whole song

Interactive

13,249 views 21 this week
1 commentread comment
1 2 3 4 5
x 4
add to favorites
×
Save as Personal and add changes to this tab that will be seen only by you. Learn more ›
×
You can save this tab as Personal to edit and correct it or add notes. All changes will be seen only by you. Learn more »
launch autoscroll
font size
0
reset
how to read this tab
guitar tuner
backing track
0:00
0:00
edit
Autoscroll
slow
fast
+/-
esc
set tempo
stop
Author
Difficulty
-------------------------------------------------------------------------------
                            Lazarus - Porcupine Tree
-------------------------------------------------------------------------------
 
This is my favourite song from porcupine tree.
And i wrote this all down to make you guys happy.
I hope you like it :)

  verse (find the strumming pattern)

   "as the..."      "towns..."    "window..."
e-|---5----------------5---------------------------------------------------|
B-|---5----------------5--------------7----------9-------------------------|
G-|---6----------------6--------------7----------9-------------------------|
D-|---7----------------7--------------7----------9-------------------------|
A-|---7----------------7--------------5----------7-------------------------|
E-|---5----------------4---------------------------------------------------|

   "i can see..."    "moon..."     "fog..."
e-|---5----------------5---------------------------------------------------|
B-|---5----------------5--------------7----------9-------------------------|
G-|---6----------------6--------------7----------9-------------------------|
D-|---7----------------7--------------7----------9-------------------------|
A-|---7----------------7--------------5----------7-------------------------|
E-|---5----------------4---------------------------------------------------|

   "than a ..."      "head..."     "analogue..."
e-|---5----------------5---------------------------------------------------|
B-|---5----------------5--------------7----------9-------------------------|
G-|---6----------------6--------------7----------9-------------------------|
D-|---7----------------7--------------7----------9-------------------------|
A-|---7----------------7--------------5----------7-------------------------|
E-|---5----------------4---------------------------------------------------|

   chorus is same pattern with verse 

   piano fills in (chorus and verse)

  (play this note in your keyboard)
e-|------------12-------10-------9-----10----------------------------------|
B-|----9-10-12----12-10----12-10----12----12-10----------------------------|
G-|--9---------------------------------------------------------------------|
D-|------------------------------------------------------------------------|
A-|------------------------------------------------------------------------|
E-|------------------------------------------------------------------------|

e-|------------12-------10-------9-----10----------------------------------|
B-|----9-10-12----12-10----12-10----12----12-10----------------------------|
G-|--9---------------------------------------------------------------------|
D-|------------------------------------------------------------------------|
A-|------------------------------------------------------------------------|
E-|------------------------------------------------------------------------|

e-|-------------12-------10-------9----------------------------------------|
B-|-----9-10-12----12-10----12-10----12-10---------------------------------|
G-|--11--------------------------------------------------------------------|
D-|------------------------------------------------------------------------|
A-|------------------------------------------------------------------------|
E-|------------------------------------------------------------------------|

e-|-----12-------10-------9------------------------------------------------|
B-|--------12-10----12-10----12-10--9-10-12--------------------------------|
G-|--11--------------------------------------------------------------------|
D-|------------------------------------------------------------------------|
A-|------------------------------------------------------------------------|
E-|------------------------------------------------------------------------|

   bridge 4x
   "my david..."  "you worry..."    "this cold..."   "for you..."
e-|---4-------------------------------5------------------------------------|
B-|---5-------------7-----------------5----------------9-------------------|
G-|---6-------------7-----------------6----------------9-------------------|
D-|---6-------------7-----------------7----------------9-------------------|
A-|---4-------------5-----------------7----------------7-------------------|
E-|-----------------------------------5----------------0-------------------|

   chorus (piano)
   
   "come to us.."  "lazarus..."   "its time..."   "to go..."
e-|---1---------------1--------------0---------------5~--------------------|
B-|---1---------------1--------------0---------------5~--------------------|
G-|---2---------------2--------------1---------------6~--------------------|
D-|---3---------------3--------------2---------------7~--------------------|
A-|---3---------------3--------------2---------------7~--------------------|
E-|---1---------------1--------------0---------------5~--------------------|

Im sorry i didn't tabbed the "final" piano part ("come to us..."),
becouse i couldn't hear it clearly, but im sure it's on F.
Comment, suggestion, or anyhing mail me at daeva_shredevil@yahoo.com
Please Rate!!



Suggest correction
Creating personal tab
Creating personal tab
You can edit any tab online and save it as your Personal.

You can edit, replace or remove any tab part or add personal notes – all changes will be seen only by you.

Personal tabs can be accessed anytime from any device, even offline.
Learn more »
comments
print report bad tab
1 comment total.
0 reply
Crossover- 10 Jan 04, 2011 03:38 PM

The last chords are Dm on "Come to us" then F on "Lazarus" and on "It's time for you to" theres an E dissolving into A.

guest
You may want to rate the tab now too:
select rating
Wanna post a correction for this tab? Suggest correction