Oops, an error
Loading. Please wait.

Octane Twisted tab

version 3
version 3

Whole song

Interactive

2,861 views 27 this week
4 commentsread comments
1 2 3 4 5
x 6
add to favorites
×
Save as Personal and add changes to this tab that will be seen only by you. Learn more ›
×
You can save this tab as Personal to edit and correct it or add notes. All changes will be seen only by you. Learn more »
launch autoscroll
font size
0
reset
how to read this tab
guitar tuner
edit
Autoscroll
slow
fast
+/-
esc
set tempo
stop
                    Octane Twisted by Porcupine Tree

Tabbed by marcus101

Intro:

Rhythm Guitar Part 1

e--------------------------------------------------------|
B--------------------------------------------------------|
G-7-----7-----7---7-----7-----5--5-----5-----5---5-----3-|   x4
D---7-----7-----7---5-----5--------3-----3-----3---3-----|
A-5---5-----5-----6---6-----6-6--5---5-----5-----4---4-4-|
D--------------------------------------------------------|

Lead Guitar Part 1

e-----------------------------------------------------------------------------|
B-15---------------15-15/16\15--13-13----------------------14\13-13\11-11--10-|
G----------------14--------------------12-12\10-10----------------------------|
D-----------------------------------------------------------------------------|
A-----------------------------------------------------------------------------|
D-----------------------------------------------------------------------------|

----------------------------------------------------------------------------|
----------------------------------------------------------------------------|
---------------------------------10-12-13\12-10--12/14-------------12-------|
-------7-7/8-5-5--5-5/7-3-------------------------------12-12---------13-13-|
----------------------------------------------------------------------------|
----------------------------------------------------------------------------|

----------------------------------------------------------------------------|
-----------------------14\13------------------------------------------------|
----------------------------13----------------------------------------------|
-----13-12-10-----------------13\11---8-10-10h12-----------7-7-7/8-5--5-5/3-|
----------------------------------------------------------------------------|
----------------------------------------------------------------------------|

--------------------------------|
----------------6h8-9\8-6-5-----|
-------------6h8----------------|
3---------6h8-------------------|
--------------------------------|
--------------------------------|

Rhythm Guitar Part 2

e-----------------------------------------------------------------------------|
B-----------------------------------------------------------------------------|
G-6-----8-----9---9----11----12--6-----8-----9---9----11----12--6-----8-----9-|
D---7-----7-----7--10----10--------7-----7-----7--10----10--------7-----7-----|
A-7---7-----7----10--10----10----7---7-----7----10--10----10----7---7-----7---|
D-----------------------------------------------------------------------------|

Lead Guitar Part 2

e-----------------------------------------------------------------------------|
B-----------------------------------------------------------------------------|
G---------------------------------------------------------------6-----8-----9-|
D-----------------------------------------------------------------------------|
A-----------------------------------------------------------------------------|
D-----------------------------------------------------------------------------|

Rhythm Guitar Part 2

-----------------------------------------------|
-----------------------------------------------|
---9----11----12---11----12----11--14----------|
-7--10----10---------12----12----12------------|
--10--10----10--10-12--12----12----------------|
-----------------------------------------------|

Lead Guitar Part 2

-----------------------------------------------|
-----------------------------------------------|
-----------------------------------------------|
--10-----9-----7--2/4-----5-----4---7----------|
-----------------------------------------------|
-----------------------------------------------|

Verse:

e-------------------------|
B-------------------------|
G-7-----7--5--5-----5--3--|   x4
D-7-----5-----3-----3-----|
A-5-----6-----5-----4-----|
D-------------------------|

Bridge:

e-------------------------------------------------------------------------|
B-------------------------------------------------------------------------|
G-7-7-77-7-11-6--7-7-77-7-11-6--------------------------------------------| x2
D-------------------------------1p01p01p00-777-666-9-1p01p01p00-777-666-9-|
A-5-5-55-5--9-4--5-5-55-5--9-4--1p01p01p00-777-666-9-1p01p01p00-777-666-9-|
D-------------------------------1p01p01p00-777-666-9-1p01p01p00-777-666-9-|

Rhythm Guitar Part 3

e----------------------------------------------------------------------------|
B----------------------------------------------------------------------------|
G-7-7--7-7--7-7--7-7--7-7--7-7--5-5--5-5--5-5--5-5--3-3--3-3--5-5--5-5--3-3--|
D-7-7--7-7--7-7--7-7--5-5--5-5--5-5--5-5--3-3--3-3--3-3--3-3--3-3--3-3--3-3--|
A-5-5--5-5--5-5--5-5--6-6--6-6--6-6--6-6--5-5--5-5--5-5--5-5--4-4--4-4--4-4--|
D----------------------------------------------------------------------------|

------|
------|
3-3---|   x4
3-3---|
4-4---|
------|

Lead Guitar Part 3

e---------------------------------------------|
B---------------------------------------------|
G-------7--7/8\7p5-----5/7\5p3-----5/6\5p3----|   x2
D-0-------------------------------------------|
A---------------------------------------------|
D---------------------------------------------|

Play the bridge section again.

Play the rhythm guitar part 3 section again (the next lead part will be played over this).

Lead Guitar Part 4

e----------------------------------------------------------------------------|
B-15--13--15--13--15--13--15--13--16--13--16--13--16--13--16--13--15--13--15-|
G---14--14--14--14--14--14--14--14--12--12--12--12--12--12--12--12--14--14---|
D----------------------------------------------------------------------------|
A----------------------------------------------------------------------------|
D----------------------------------------------------------------------------|

-----------------------------------------------------------------------------|
--13--15--13--15--13--18--16--18--16--18--16--18--16--18--15--18--15--18--15-|
14--14--14--14--14--14--17--17--17--17--17--17--17--17--17--17--17--17--17---|
-----------------------------------------------------------------------------|
-----------------------------------------------------------------------------|
-----------------------------------------------------------------------------|

-----------------------------------------------------------------------------|
--18--15--20--18--20--18--20--18--20--18--20--18--20--18--20--18--20--18--21-|
17--17--17--19--19--19--19--19--19--19--19--19--19--19--19--19--19--19--19---|
-----------------------------------------------------------------------------|
-----------------------------------------------------------------------------|
-----------------------------------------------------------------------------|

------------------------------------------------------------------------------|
--18--21--18--21--18--21--18--------------------------------------------------|
20--20--20--20--20--20--20--20--7-5---7-5---7-5---7-5---8--7---8--7---8--7----|
---------------------------------7-7-7-7-7-7-7-7-7-7-7-7-10-8-8-10-8-8-10-8-8-|
------------------------------------------------------------------------------|
------------------------------------------------------------------------------|

                                As soon as this part above kicks in, the lead
                                guitar part 3 section is played over the top.

------------------------------------------------------------------------------|
------------------------------------------------------------------------------|
8--7---12--14-----12--14-----12--14-----12--14-----13--15-----13--15-----13---|
-10-8-8--15--15-15--15--15-15--15--15-15--15--15-15--15--15-15--15--15-15--15-|
------------------------------------------------------------------------------|
------------------------------------------------------------------------------|

-----------------------------------------------------------------------------|
--------------------15--13--15--13--15--13--15--13--16--13--16--13--16--13---|
15-----13--15---------14--14--14--14--14--14--14--14--12--12--12--12--12--12-|
--15-15--15--15-15-----------------------------------------------------------|
-----------------------------------------------------------------------------|
-----------------------------------------------------------------------------|

----------------------------------------------------------------------------|
16--13--15--13--15--13--15--13--15--13--18--16--18--16--18--16--18--16------|
--12--12--14--14--14--14--14--14--14--14--17--17--17--17--17--17--17--------|
----------------------------------------------------------------------------|
----------------------------------------------------------------------------|
----------------------------------------------------------------------------|

Ending Lead

e-----------------------------------------------------------------------------|
B-----7/13-----------11-----10------------7/13-----------11-------------------|
G-8-7------11-----------8-7-----------8-7------11-----------11-7\2-2----2h3p2-|
D-----------------------------------------------------------------------------|
A-----------------------------------------------------------------------------|
D-----------------------------------------------------------------------------|

-----------------------------------------------------------------------------|
----------------7/13------------11-----10--------------7/13------------11----|
p0-2-3-5-7--8-7------11------------8-7-------------8-7------11------------11-|
-----------------------------------------7-----------------------------------|
-----------------------------------------------------------------------------|
-----------------------------------------------------------------------------|

-----------------------------------------------------------------------------|
-----------------------------------------------------------------------------|
7\2-2------------------------------------------------------------------------|
-----------------------------------------------------------------------------|
-----------------------------------------------------------------------------|
-----------------------------------------------------------------------------|

Great song, enjoy!

            
            
Suggest correction
Creating personal tab
Creating personal tab
You can edit any tab online and save it as your Personal.

You can edit, replace or remove any tab part or add personal notes – all changes will be seen only by you.

Personal tabs can be accessed anytime from any device, even offline.
Learn more »
comments
print report bad tab
4 comments total. Showing first comments.
+1 reply
Dave Gilmour 40 Feb 23, 2013 08:50 AM

Fantastic, only proper tab of this out there I've seen. Thanks!

+1 reply
marcus101 61 May 29, 2013 09:31 AM

no problem, glad it's been appreciated.

0 reply
Debml 1,082 Dec 21, 2014 04:53 PM

Hey man, really great tab! The only things I'd change are the intro and the chorus to this (hope the bars aren't too long to screw the html lol):

Intro rhythm
e|-------------------------------------------------------------------|
B|-------------------------------------------------------------------|
G|-7-----7-----7----7-----7-5------5-----5-----5----5-----5-3--------| x4
D|---7-----7-----7----5-------5------3-----3-----3----3-------3------|
A|-5---5-----5------6---6-------6--5---5-----5------4---4-------4----|
D|-------------------------------------------------------------------|

e|---------------------------------------------|
B|---------------------------------------------|
G|-6-----8-----9----9--------11-------12-------| x3
D|---7-----7-----7-----10-------10-------10----|
A|-7---7-----7------10----10-------10----------|
D|---------------------------------------------|

e|-------------------------------|
B|-------------------------------|
G|-11-------12-------11----14----|
D|----12-------12-------12-------|
A|-12----12-------12-------------|
D|-------------------------------|

Intro solo; you were only missing some octaves, although I used the live video for positions.
e|---------------------------------------------------------9\8---8\6---6---------------|
B|-15-----------15-15/16\15--13-13-----------------------------------------------------|
G|-----------14-----------------------12-12\10-10--------6-----5-----3---3-3\2--2-2----|
D|-------------------------------------------------------------------------------------|
A|-------------------------------------------------------------------------------------|
D|-------------------------------------------------------------------------------------|

e|-------------------------------------------------------------|
B|---------------------------6-8-9--8--6--6/10--------8--------|
G|-2-2/3---------------------------------------7-7------8-8----|
D|--------5-5----5-5/7-3---------------------------------------|
A|-------------------------------------------------------------|
D|-------------------------------------------------------------|

e|----------9p8-----------------------------------------------|
B|--------------9---------------------------------------------|
G|-8-7-5----------8\6----3--5--5/7----------------------------|
D|------------------------------------7-7-7/8\5----5-5\3-3----|
A|------------------------------------------------------------|
D|------------------------------------------------------------|

e|--------------------------|
B|---------6h8-9-8-6--5-----|
G|-----6h8------------------|
D|-6h8----------------------|
A|--------------------------|
D|--------------------------|

e|-----------------------------------------|
B|-----------------------------------------|
G|-6---8---9--\5---4---2-------------------|
D|-------------------------/4--5--4--/7----|
A|-----------------------------------------|
E|-----------------------------------------|

Chorus (is it a chorus?)
e|-------------------------------------|
B|-------------------------------------|
G|-7-7--7-7-7/11-6--7-7--7-7-7/11-3----|
D|-x-x--x-x-x-x--x--x-x--x-x-x-x--x----|
A|-5-5--5-5-5/9--4--5-5--5-5-5/9--1----|
D|-------------------------------------|

One of the guitars goes to the first fret on the second slid while the other one remains sliding to the fourth fret.

I used lots of your tab to learn the song so I'd feel guilty posting my own haha, that's all I have for corrections! Again, great tab!

guest
You may want to rate the tab now too:
select rating
Wanna post a correction for this tab? Suggest correction