Oops, an error
Loading. Please wait.

Open Car chords

version 1
version 1

Whole song

  • Also includes a tab of the riff.
619 views 36 this week
no commentswrite comment
1 2 3 4 5
3 more votes to show rating
add to favorites
×
Save as Personal and add changes to this tab that will be seen only by you. Learn more ›
×
You can save this tab as Personal to edit and correct it or add notes. All changes will be seen only by you. Learn more »
launch autoscroll
font size
0
reset
transpose
0
reset
simplify chords
display chords
guitar tuner
backing track
0:00
0:00
edit
Autoscroll
slow
fast
+/-
esc
set tempo
stop
About this tab version
Also includes a tab of the riff. Was this info helpful? Yes No
Strumming Are these strumming patterns correct? Yes No
Verse (first half of pattern) 90 bpm
1
 
&
 
2
 
&
 
3
 
&
 
4
 
&
 
5
Listen
Verse (second half of pattern 90 bpm
1
 
&
 
2
 
&
 
3
 
&
 
4
 
&
 
5
Listen
Bridge 90 bpm
1
 
&
 
2
 
&
 
3
 
&
 
4
 
&
 
Listen
Special chords:

         dadgbe
Dm9      x57560
G/D      xx000x
Gsus4/D  xx0788
G/D*     xx0787

[Intro]
E5 D5 F5 E5 D5 F5 E5 D5 F5
E5 D5 F5 E5 D5 F5 E5 D5 E5 F5 D5

[Verse]
E5      D5   F5   E5      D5  F5
Nothing like this Felt in her kiss
E5     D5 F5       E5       D5  F5
Cannot re-sist her Fell for her charm
E5      D5  F5   E5     D5 E5 F5 D5
Lost in her arms I keep a  photo-graph
E5      D5 F5      E5     D5   F5
Give me a  glimpse Let me come in
E5       D5 F5       E5      D5 F5
Be there in-side her Here it be-gins
E5      D5  F5  E5        D5 E5  F5 D5
Here is the sin Something to lie a-bout

[Riff]
e|------------------------------------------------------------|
B|------------------------------------------------------------|
G|------------------------------------------------------------|
D|-----------0-0-2-2--------------------0-0-2------------3----| x2
A|---5-----3-0-0-2-2------------5-----3-0-0-2--5-----3-4------|
D|-0---3-4---0-0-2-2-0-2-3-0--0---3-4---0-0-2----3-4----------|

[Verse]
E5        D5     F5    E5      D5     F5
You think you're smart I think you're art
E5   D5  F5      E5     D5  F5
We agree on this It doesn't work
E5      D5   F5   E5      D5   E5  F5    D5
Feeling like dirt Feeling like you don't care
E5     D5 F5   E5     D5  F5
We get a  room And in the gloom
E5         D5 F5        E5         D5  F5
She lights a  cigarette Clothes on the bed
E5      D5  F5   E5     D5 E5   F5 D5
Love me she said I lose my-self to her

[Riff]
e|------------------------------------------------------------|
B|------------------------------------------------------------|
G|------------------------------------------------------------|
D|-----------0-0-2-2--------------------0-0-2------------3----| x2
A|---5-----3-0-0-2-2------------5-----3-0-0-2--5-----3-4------|
D|-0---3-4---0-0-2-2-0-2-3-0--0---3-4---0-0-2----3-4----------|

[Bridge]
Dsus2        Dm9                    Dm6
I'm getting feelings I'm hiding too well
Bbmaj7                    
(Bury the horse shaped shell)
Dsus2
  Something broke inside my stomach
Dm9                                   Dm6
  I let the pieces lie just where they fell
Bbmaj7             Dm    C
(Being with you is hell)

[Chorus]
Bb                 A7
  Hair blown in an open car
Dsus2                          Dm C
Summer dress slips down her arm
Bb                  A7
  Hair blown in an open car

[Verse]
E5 D5     F5    E5    D5  F5
OK what's next? After the sex
E5      D5 F5      E5      D5  F5
What do we do now? Finding the time
Drawing the line And never crossing it
E5       D5  F5    E5       D5  F5
Gave her the hours Gave her the power
E5     D5 F5      E5       D5  F5
Cannot e-rase her Gave her the truth
E5       D5  F5    E5     D5  E5 F5 D5
Gave her the proof I gave her every-thing

[Riff]
e|------------------------------------------------------------|
B|------------------------------------------------------------|
G|------------------------------------------------------------|
D|-----------0-0-2-2--------------------0-0-2------------3----| x2
A|---5-----3-0-0-2-2------------5-----3-0-0-2--5-----3-4------|
D|-0---3-4---0-0-2-2-0-2-3-0--0---3-4---0-0-2----3-4----------|

[Bridge]
Dsus2        Dm9                    Dm6
I'm getting feelings I'm hiding too well
Bbmaj7                    
(Bury the horse shaped shell)
Dsus2
  Something broke inside my stomach
Dm9                                   Dm6
  I let the pieces lie just where they fell
Bbmaj7             Dm    C
(Being with you is hell)

[Chorus]
Bb                 A7
  Hair blown in an open car
Dsus2                            Dm C
  Summer dress slips down her arm
Bb                  A7
  Hair blown in an open car
Dsus2                      Dm C
  On a drive out to the farm
Bb                  A7
  Hair blown in an open car

[Bridge]
Dm7 Dm9     G/D D
Dm7 Dm9     G/D D
Dm7 Dm9     Gsus4/D G/D* G/D D

[Chorus]
Bb                  Asus4  A
  Hair blown in an open car
Dsus2                          Gm/D
  Summer dress slips down your arm
Bb                  Asus4   A Dsus2
  Hair blown in an open car..

            
            
Suggest correction
Creating personal tab
Creating personal tab
You can edit any tab online and save it as your Personal.

You can edit, replace or remove any tab part or add personal notes – all changes will be seen only by you.

Personal tabs can be accessed anytime from any device, even offline.
Learn more »
Give kudos to tab author, rate the tab!
1 2 3 4 5
comments
print report bad tab
guest
You may want to rate the tab now too:
select rating
Wanna post a correction for this tab? Suggest correction