Oops, an error
Loading. Please wait.

Open Car tab

version 2
version 2

Whole song

47,080 views 90 this week
6 commentsread comments
1 2 3 4 5
x 24
add to favorites
×
Save as Personal and add changes to this tab that will be seen only by you. Learn more ›
×
You can save this tab as Personal to edit and correct it or add notes. All changes will be seen only by you. Learn more »
launch autoscroll
font size
0
reset
how to read this tab
guitar tuner
backing track
0:00
0:00
edit
Autoscroll
slow
fast
+/-
esc
set tempo
stop
Open Car - Porcupine Tree
----------------------------------------------------------------------------
Tabbed by: alecc45

This is %100 correct. The rhythm during the acoustic part is pretty tricky, so it might 
a few times listening to the song to get it right.

Tuning: D A D G B E (Drop D)

e|---------------------------------------------------------------------------|
B|---------------------------------------------------------------------------|
G|---------------------------------------------------------------------------|
D|---------------------------------------------------------------------------|
A|---------------------------------------------------------------------------|
E|--2-2-0-3---2-2-0-3---2-2-0-3---3---2-2-0-3---2-2-0-3---2-2-0-2--3-0-------|

e|---------------------------------------------------------------------------|
B|---------------------------------------------------------------------------|
G|---------------------------------------------------------------------------|
D|---------------------------------------------------------------------------|
A|---------------------------------------------------------------------------|
E|--2-2-0-3---2-2-0-3---2-2-0-3---3---2-2-0-3---2-2-0-3---2-2-0-2--3-0-------|

e|---------------------------------------------------------------------------|
B|---------------------------------------------------------------------------|
G|---------------------------------------------------------------------------|
D|---------------------------------------------------------------------------|
A|---------------------------------------------------------------------------|
E|--2-2-0-3---2-2-0-3---2-2-0-3---3---2-2-0-3---2-2-0-3---2-2-0-2--3-0-------|

e|---------------------------------------------------------------------------|
B|---------------------------------------------------------------------------|
G|---------------------------------------------------------------------------|
D|--------------------------------------------------------------3------------|
A|----5-----3-----2---2-----2-3-0-----5-----3-----2---5-----3-4--------------|
E|--0---3-4---0-0-2---2---0-2-3-0---0---3-4---0-0-2-----3-4------------------|

e|---------------------------------------------------------------------------|
B|---------------------------------------------------------------------------|
G|---------------------------------------------------------------------------|
D|--------------------------------------------------------------3------------|
A|----5-----3-----2---2-----2-3-0-----5-----3-----2---5-----3-4--------------|
E|--0---3-4---0-0-2---2---0-2-3-0---0---3-4---0-0-2-----3-4------------------|

e|---------------------------------------------------------------------------|
B|---------------------------------------------------------------------------|
G|---------------------------------------------------------------------------|
D|---------------------------------------------------------------------------|
A|---------------------------------------------------------------------------|
E|--2-2-0-3---2-2-0-3---2-2-0-3---3---2-2-0-3---2-2-0-3---2-2-0-2--3-0-------|

e|---------------------------------------------------------------------------|
B|---------------------------------------------------------------------------|
G|---------------------------------------------------------------------------|
D|---------------------------------------------------------------------------|
A|---------------------------------------------------------------------------|
E|--2-2-0-3---2-2-0-3---2-2-0-3---3---2-2-0-3---2-2-0-3---2-2-0-2--3-0-------|

e|---------------------------------------------------------------------------|
B|---------------------------------------------------------------------------|
G|---------------------------------------------------------------------------|
D|--------------------------------------------------------------3------------|
A|----5-----3-----2---2-----2-3-0-----5-----3-----2---5-----3-4--------------|
E|--0---3-4---0-0-2---2---0-2-3-0---0---3-4---0-0-2-----3-4------------------|

e|---------------------------------------------------------------------------|
B|---------------------------------------------------------------------------|
G|---------------------------------------------------------------------------|
D|--------------------------------------------------------------3------------|
A|----5-----3-----2---2-----2-3-0-----5-----3-----2---5-----3-4--------------|
E|--0---3-4---0-0-2---2---0-2-3-0---0---3-4---0-0-2-----3-4------------------|

e|--0------0----------0----------0------0----------0----------0----------0---|
B|--3------6------6----6-----6----6-----3------6----6-----6----6-----6----6--|
G|--2------5------4-----4----3-----3----2------5-----5----4-----4----3-----3-|
D|--0------0------0------0---0------0---0------0------0---0------0---0------0|
A|---------------------------------------------------------------------------|
E|---------------------------------------------------------------------------|

e|--0------------------------------0-----------0------------------------------|
B|--3------------------------------3-----------3------------------------------|
G|--2----7-7-5-5-3----3-3-2----2-2-2-----------2---7-7-5-5-3----3-3-2---------|
D|--0----7-7-5-5-3----3-3-2----2-2-0-----------0---7-7-5-5-3----3-3-2---------|
A|-------5-5-3-3-1----1-1-0----0-0-0-----------0---5-5-3-3-1----1-1-0---0-----|
E|---------------------------------0----0-00---0-------------------------7----|

e|---------------------------------------------------------------------------|
B|---------------------------------------------------------------------------|
G|---------------------------------------------------------------------------|
D|---------------------------------------------------------------------------|
A|---------------------------------------------------------------------------|
E|--2-2-0-3---2-2-0-3---2-2-0-3---3---2-2-0-3---2-2-0-3---2-2-0-2--3-0-------|

e|---------------------------------------------------------------------------|
B|---------------------------------------------------------------------------|
G|---------------------------------------------------------------------------|
D|---------------------------------------------------------------------------|
A|---------------------------------------------------------------------------|
E|--2-2-0-3---2-2-0-3---2-2-0-3---3---2-2-0-3---2-2-0-3---2-2-0-2--3-0-------|

e|---------------------------------------------------------------------------|
B|---------------------------------------------------------------------------|
G|---------------------------------------------------------------------------|
D|--------------------------------------------------------------3------------|
A|----5-----3-----2---2-----2-3-0-----5-----3-----2---5-----3-4--------------|
E|--0---3-4---0-0-2---2---0-2-3-0---0---3-4---0-0-2-----3-4------------------|

e|---------------------------------------------------------------------------|
B|---------------------------------------------------------------------------|
G|---------------------------------------------------------------------------|
D|--------------------------------------------------------------3------------|
A|----5-----3-----2---2-----2-3-0-----5-----3-----2---5-----3-4--------------|
E|--0---3-4---0-0-2---2---0-2-3-0---0---3-4---0-0-2-----3-4------------------|

e|--0------0----------0----------0------0----------0----------0----------0---|
B|--3------6------6----6-----6----6-----3------6----6-----6----6-----6----6--|
G|--2------5------4-----4----3-----3----2------5-----5----4-----4----3-----3-|
D|--0------0------0------0---0------0---0------0------0---0------0---0------0|
A|---------------------------------------------------------------------------|
E|---------------------------------------------------------------------------|

e|--0------------------------------0-----------0-----------------------------|
B|--3------------------------------3-----------3-----------------------------|
G|--2----7-7-5-5-3----3-3-2----2-2-2-----------2---7-7-5-5-3----3-3-2--------|
D|--0----7-7-5-5-3----3-3-2----2-2-0-----------0---7-7-5-5-3----3-3-2--------|
A|-------5-5-3-3-1----1-1-0----0-0-0-----------0---5-5-3-3-1----1-1-0---0----|
E|---------------------------------0----0-00---0-------------------------7---|

e|--0------------------------------|
B|--3------------------------------|
G|--2----7-7-5-5-3----3-3-2----2-2-|
D|--0----7-7-5-5-3----3-3-2----2-2-|
A|-------5-5-3-3-1----1-1-0----0-0-|
E|---------------------------------|

     H P                                  H
e|--5-6-5--------0--0--0--0-0-X-X--0-2--2-2-2-2-2---2-2-2-2-0-X-X------------|
B|--6---------6--6--6--6--6-6-X-X--3----3-3-3-3-3---3-3-3-3-2-X-X------------|
G|--5------5-----5--5-----5-5-X-X--2----2-2-2-2-2---2-2-2-2-3-X-X------------|
D|--0---------------------0-0-X-X--0----0-0-0-0-0---0-0-0-0-0-X-X------------|
A|---------------------------------------------------------------------------|
E|---------------------------------------------------------------------------|

     H P                                        H
e|--5-6-5--------0--0--0-X-8--7--X--0-0--0-2--2--2-2-2-2--0------------------|
B|--6------------6--6--6-X-8--8--X--3-3--3----3--3-3-3-3--3---3--------------|
G|--5---------6--5--5----X-7--7--X--2-2--2----2--2-2-2-2--2---3------2-------|
D|--0------5---------------------X--0-0--0----0--0-0-0-0--0---3------2-------|
A|------------------------------------------------------------1------0-------|
E|---------------------------------------------------------------------------|


e|-----------------------3-------------------------------------------0-------|
B|-----3--2H3-----3------3------3-------------3-2H3---3----3----3----3-------|
G|--2-------------2------3------3-------2H2-----------0H2--0H2--0H2--0H2-----|
D|----------------0------5------3-------2-------------0----0----0----0-------|
A|----------------0-------------1-------0-------------0----0----0----0-------|
E|---------------------------------------------------------------------------|



************************************

| H Hammer on
| X Mure Note

************************************

            
            
Suggest correction
Creating personal tab
Creating personal tab
You can edit any tab online and save it as your Personal.

You can edit, replace or remove any tab part or add personal notes – all changes will be seen only by you.

Personal tabs can be accessed anytime from any device, even offline.
Learn more »
comments
print report bad tab
6 comments total. Showing first comments.
+1 reply
crondom 103 May 23, 2009 02:52 AM

Nice tab :) 5*

0 reply
metalz4life 212 Oct 14, 2013 01:17 AM, edited on November 16 2014, 08:50 pm

Awesome work!! With the exception of just one small minor correction in the acoustic section. The chord that you have written as Bb:1333 is actually a Bb6add9 - x10011 which is one of Steven Wilson's favourite chord shapes

guest
You may want to rate the tab now too:
select rating
Wanna post a correction for this tab? Suggest correction