Oops, an error
Loading. Please wait.

Sentimental tab

version 1
version 1

Whole song

Interactive

11,910 views 9 this week
3 commentsread comments
1 2 3 4 5
x 3
add to favorites
×
Save as Personal and add changes to this tab that will be seen only by you. Learn more ›
×
You can save this tab as Personal to edit and correct it or add notes. All changes will be seen only by you. Learn more »
launch autoscroll
font size
0
reset
how to read this tab
guitar tuner
edit
Autoscroll
slow
fast
+/-
esc
set tempo
stop
Author
Difficulty
I heard this song and I wanted to play it in acoustic. This is how I do it.

Chords used:

Am (x02210)
F (133211)
Dm (xx0231)
E (022100)
Dsus4 (xx0233)
Esus4 (022200)
Dsus2 (xx0230) 


Intro:
  Am                        F
|-------------------------|--------------------------|
|-5---5---5---5---5---5---|-10---10---10---10---10---|
|-5---5---5---5---5---5---|-10---10---10---10---10---|
|-7---7---7---7---7---7---|-10---10---10---10---10---|
|-------------------------|----8----8----8----8----8-|
|---5---5---5---5---5---5-|--------------------------|

 Dm                     E
|---------------------|-------------------------|
|-6---6---6---6---6---|-9---9---9---9---9---9---|
|-7---7---7---7---7---|-9---9---9---9---9---9---|  
|-7---7---7---7---7---|-9---9---9---9---9---9---|    x 4
|---5---5---5---5---5-|---7---7---7---7---7---7-|
|---------------------|-------------------------|




Verse 
 Am                         F
|-------------------------|--------------------------|
|-5---5---5---5---5---5---|-10---10---10---10---10---|
|-5---5---5---5---5---5---|-10---10---10---10---10---|
|-7---7---7---7---7---7---|-10---10---10---10---10---|
|-------------------------|----8----8----8----8----8-|
|---5---5---5---5---5---5-|--------------------------|
          I don't wanna be old...          And I
          I don't really  know...          If  I

 Dm                    E
|---------------------|-------------------------|
|-6---6---6---6---6---|-9---9---9---9---9---9---|
|-7---7---7---7---7---|-9---9---9---9---9---9---|  
|-7---7---7---7---7---|-9---9---9---9---9---9---|    
|---5---5---5---5---5-|---7---7---7---7---7---7-|
|---------------------|-------------------------|
 don't want dependance...
 What is normal...

  Am                        F
|-------------------------|--------------------------|
|-5---5---5---5---5---5---|-10---10---10---10---10---|
|-5---5---5---5---5---5---|-10---10---10---10---10---|
|-7---7---7---7---7---7---|-10---10---10---10---10---|
|-------------------------|----8----8----8----8----8-|
|---5---5---5---5---5---5-|--------------------------|
         It's no fun to be told...            that you
         And I'm not really sure...           If the

 Dm                     E
|---------------------|-------------------------|
|-6---6---6---6---6---|-9---9---9---9---9---9---|
|-7---7---7---7---7---|-9---9---9---9---9---9---|  
|-7---7---7---7---7---|-9---9---9---9---9---9---|    
|---5---5---5---5---5-|---7---7---7---7---7---7-|
|---------------------|-------------------------|
can't blame your parents anymore...
pills I've been taking, are helping...

 Am                         F
|-------------------------|--------------------------|
|-5---5---5---5---5---5---|-10---10---10---10---10---|
|-5---5---5---5---5---5---|-10---10---10---10---10---|
|-7---7---7---7---7---7---|-10---10---10---10---10---|
|-------------------------|----8----8----8----8----8-|
|---5---5---5---5---5---5-|--------------------------|
          Finding it hard             to hang from a star
          I've waste my life          I'm hurting inside

 Dm                     E                         F
|---------------------|-------------------------|--------------------------|
|-6---6---6---6---6---|-9---9---9---9---9---9---|-10---10---10---10---10---|
|-7---7---7---7---7---|-9---9---9---9---9---9---|-10---10---10---10---10---|  
|-7---7---7---7---7---|-9---9---9---9---9---9---|-10---10---10---10---10---|    
|---5---5---5---5---5-|---7---7---7---7---7---7-|----8----8----8----8----8-|
|---------------------|-------------------------|--------------------------|
                                   I don't wanna be            never wanna be
                                   I don't really know         and I'm not really
 Dm
|---------------------|
|-6---6---6---6---6---|
|-7---7---7---7---7---|
|-7---7---7---7---7---|
|---5---5---5---5---5-|
|---------------------|
 old...
 sure...


Chorus:

In this part I play it simply struming these chords.

Am             Am
    Sullen and bored the kids stay
       Dsus4     Dm              Esus4
And in this way, wish away, each day
Am                Am
    Stoned in the mall the kids play
       Dsus4     Dm              Esus4
And in this way, wish away, each day


Am Dsus4 Dm Esus4 x2

Verse 2

Chorus

Am Dsus4 Dm Esus4 x2

Chorus

Outro: 
This chords are strumed:
Dsus2 - Am 

Solo:
Not sure, any corrections accepted.

 * = sweep

|-----------------------5-5-------8*-6-5-6-8-5------------------|
|-----8p6-5-6p5-3-5p3-3---------6*---------------3h5---1h3------|
|---7-------------------------5*---------------------5-----2----|
|-7-------------------------7*----------------------------------|
|---------------------------------------------------------------|
|---------------------------------------------------------------|




Chorus until fade out.


       ...The_black_bone...

            
            
Suggest correction
Creating personal tab
Creating personal tab
You can edit any tab online and save it as your Personal.

You can edit, replace or remove any tab part or add personal notes – all changes will be seen only by you.

Personal tabs can be accessed anytime from any device, even offline.
Learn more »
Give kudos to tab author, rate the tab!
1 2 3 4 5
comments
print report bad tab
3 comments total.
0 reply
tCcapone 10 Sep 08, 2007 01:42 AM

The tab is excellent, thankyou the_black_bone! But I would use F instead of E in the chorus. so that would be Chorus: Am - Am - F(sus4?)to F - Dm
I think it sounds more correct.

+2 reply
Skiier279 10 Nov 30, 2008 11:35 AM

dose anyone know the solo unplugged version of steven wilson playing this?

0 reply
metalz4life 212 Sep 12, 2012 09:42 PM

@ Skiier279 Yes there is a proper tab for the acoustic unglugged version here is the link to it as well as the original video: http://www.chemicalharvest.com/Sentimentalacoustic.txt

http://www.ynet.co.il/articles/0,7340,L-3397894,00.html

guest
You may want to rate the tab now too:
select rating
Wanna post a correction for this tab? Suggest correction