Oops, an error
Loading. Please wait.

Shesmovedon tab

version 2
version 2

Whole song

Interactive

15,057 views 15 this week
1 commentread comment
1 2 3 4 5
x 9
add to favorites
×
Save as Personal and add changes to this tab that will be seen only by you. Learn more ›
×
You can save this tab as Personal to edit and correct it or add notes. All changes will be seen only by you. Learn more »
launch autoscroll
font size
0
reset
how to read this tab
guitar tuner
edit
Autoscroll
slow
fast
+/-
esc
set tempo
stop
I didn't tab out the solo. Really couldn't be bothered.

Tuning: Standard
Guitar I-Electric
Guitar II-Acoustic

Intro
Guitar I
E||---------------------------------||
B||---------------------------------||
G||---------------------------------||
D||-------4----4h5---2b----2b-------||
A||---------------------------------||
E||--0------------------------------||

E||---------------------------------||
B||---------------------------------||
G||----------------------4b---4b----||
D||-------4----4h5---2--------------||
A||---------------------------------||
E||--0------------------------------||

E||---------------------------------||
B||---------------------------------||
G||---------------------------------||
D||-------4----4h5---2b----2b-------||
A||---------------------------------||
E||--0------------------------------||

E||---------------------------------||
B||---------------------------------||
G||----------------------4---2--0---||
D||-------4----4h5---2-------------4||
A||---------------------------------||
E||--0------------------------------||

E||---------------------------------||
B||---------------------------------||
G||-------0---0---------------------||
D||0-1------1---1-------------------||
A||---------------------------------||
E||---------------------------------||

Verse I (0:17)
Guitar I
E||---------------------------------||
B||---------------------------------||
G||---------------------------------||
D||-------4----4h5---2b----2b-------||
A||---------------------------------||
E||--0------------------------------||
   You move in waves
E||---------------------------------||
B||---------------------------------||
G||----------------------4b---4b----||
D||-------4----4h5---2--------------||
A||---------------------------------||
E||--0------------------------------||
   You never retrace
E||---------------------------------||
B||---------------------------------||
G||---------------------------------||
D||-------4----4h5---2b----2b-------||
A||---------------------------------||
E||--0------------------------------||
   Your newest craze
E||---------------------------------||
B||---------------------------------||
G||----------------------4---2--0---||
D||-------4----4h5---2-------------4||
A||---------------------------------||
E||--0------------------------------||
   Straight out of the face by the
E||---------------------------------||
B||---------------------------------||
G||-------0---0---------------------||
D||0-1------1---1-------------------||
A||---------------------------------||
E||---------------------------------||
   Bed unread

Interlude I (O:34)
Guitar I
E||---------------------------------||
B||---------------------------------||
G||---------------------------------||
D||-------4----4h5---2b----2b-------||
A||---------------------------------||
E||--0------------------------------||

E||---------------------------------||
B||---------------------------------||
G||----------------------4b---4b----||
D||-------4----4h5---2--------------||
A||---------------------------------||
E||--0------------------------------||

E||---------------------------------||
B||---------------------------------||
G||---------------------------------||
D||-------4----4h5---2b----2b-------||
A||---------------------------------||
E||--0------------------------------||

E||---------------------------------||
B||---------------------------------||
G||----------------------4---2--0---||
D||-------4----4h5---2-------------4||
A||---------------------------------||
E||--0------------------------------||

E||---------------------------------||
B||---------------------------------||
G||-------0---0---------------------||
D||0-1------1---1-------------------||
A||---------------------------------||
E||---------------------------------||


Verse II
Guitar I
E||---------------------------------||
B||---------------------------------||
G||---------------------------------||
D||-------4----4h5---2b----2b-------||
A||---------------------------------||
E||--0------------------------------||
   I'm left behind
E||---------------------------------||
B||---------------------------------||
G||----------------------4b---4b----||
D||-------4----4h5---2--------------||
A||---------------------------------||
E||--0------------------------------||
   Like all the others
E||---------------------------------||
B||---------------------------------||
G||---------------------------------||
D||-------4----4h5---2b----2b-------||
A||---------------------------------||
E||--0------------------------------||
   Some fall for you
E||---------------------------------||
B||---------------------------------||
G||----------------------4---2--0---||
D||-------4----4h5---2-------------4||
A||---------------------------------||
E||--0------------------------------||
   It doesn't make much difference
E||---------------------------------||
B||---------------------------------||
G||-------0---0---------------------||
D||0-1------1---1-------------------||
A||---------------------------------||
E||---------------------------------||
   If they do

Chorus (1:07)
Guitar 2
E||-0-0-0-0-0-0-0-0-0-0-0-0-0-0-0-0-0-0-0||
B||-0-0-0-0-0-0-0-0-0-0-0-0-0-0-0-0-0-0-0||
G||-0-0-0-0-0-0-0-0-0-0-0-0-0-0-0-0-0-0-0||
D||-2-2-2-2-2-2-2-2-2-2-2-2-2-2-2-2-2-2-2||
A||-2-2-2-2-2-2-2-2-2-3-3-3-3-3-3-3-3-3-3||
E||-0-0-0-0-0-0-0-0-0-x-x-x-x-x-x-x-x-x-x||
   She changes everytime you look

E||-0-0-0-0-0-0-0-0-0-0-0-0-0-0-0-0-0-0-0||
B||-0-0-0-0-0-0-0-0-3-3-3-3-3-3-3-0-0-0-0||
G||-0-0-0-0-0-0-0-0-2-2-2-2-2-2-2-0-0-0-0||
D||-2-2-2-2-2-2-2-2-0-0-0-0-0-0-0-2-2-2-2||
A||-3-3-3-3-3-3-3-3-0-0-0-0-0-0-0-3-3-3-3||
E||-x-x-x-x-x-x-x-x-x-x-x-x-x-x-x-x-x-x-x||
   By summer it was all gone now she’s moved on

E||-0-0-0-0-0-0-0-0-0-0-0-0-0-0-0-0-0-0-0||
B||-0-0-0-0-0-0-0-0-0-0-0-0-0-0-0-0-0-0-0||
G||-0-0-0-0-0-0-0-0-0-0-0-0-0-0-0-0-0-0-0||
D||-2-2-2-2-2-2-2-2-2-2-2-2-2-2-2-2-2-2-2||
A||-2-2-2-2-2-2-2-2-2-3-3-3-3-3-3-3-3-3-3||
E||-0-0-0-0-0-0-0-0-0-x-x-x-x-x-x-x-x-x-x||
   She called you every other day

E||-0-0-0-0-0-0-0-0-0-0-0-0-0-0-0-0-0-0-0||
B||-0-0-0-0-0-0-0-0-3-3-3-3-3-3-3-0-0-0-0||
G||-0-0-0-0-0-0-0-0-2-2-2-2-2-2-2-0-0-0-0||
D||-2-2-2-2-2-2-2-2-0-0-0-0-0-0-0-2-2-2-2||
A||-3-3-3-3-3-3-3-3-0-0-0-0-0-0-0-3-3-3-3||
E||-x-x-x-x-x-x-x-x-x-x-x-x-x-x-x-x-x-x-x||
   So savour it it's all gone now she's moved on

Interlude II (1:34)
Guitar I (with distortion)
E||---------------------------------||
B||---------------------------------||
G||---------------------------------||
D||-------4----4h5---2b----2b-------||
A||---------------------------------||
E||--0------------------------------||

E||---------------------------------||
B||---------------------------------||
G||----------------------4b---4b----||
D||-------4----4h5---2--------------||
A||---------------------------------||
E||--0------------------------------||

E||---------------------------------||
B||---------------------------------||
G||---------------------------------||
D||-------4----4h5---2b----2b-------||
A||---------------------------------||
E||--0------------------------------||

E||---------------------------------||
B||---------------------------------||
G||----------------------4---2--0---||
D||-------4----4h5---2-------------4||
A||---------------------------------||
E||--0------------------------------||

E||---------------------------------||
B||---------------------------------||
G||-------0---0---------------------||
D||0-1------1---1-------------------||
A||---------------------------------||
E||---------------------------------||

Verse III (1:51)
Guitar I (w distortion)
E||---------------------------------||
B||---------------------------------||
G||---------------------------------||
D||-------4----4h5---2b----2b-------||
A||---------------------------------||
E||--0------------------------------||
   So for a while
E||---------------------------------||
B||---------------------------------||
G||----------------------4b---4b----||
D||-------4----4h5---2--------------||
A||---------------------------------||
E||--0------------------------------||
   Everything seemed new
E||---------------------------------||
B||---------------------------------||
G||---------------------------------||
D||-------4----4h5---2b----2b-------||
A||---------------------------------||
E||--0------------------------------||
   Did we connect
E||---------------------------------||
B||---------------------------------||
G||----------------------4---2--0---||
D||-------4----4h5---2-------------4||
A||---------------------------------||
E||--0------------------------------||
   Or was it all just biding time 
E||---------------------------------||
B||---------------------------------||
G||-------0---0---------------------||
D||0-1------1---1-------------------||
A||---------------------------------||
E||---------------------------------||
   For you

Chorus (2:08)
Guitar 2
E||-0-0-0-0-0-0-0-0-0-0-0-0-0-0-0-0-0-0-0||
B||-0-0-0-0-0-0-0-0-0-0-0-0-0-0-0-0-0-0-0||
G||-0-0-0-0-0-0-0-0-0-0-0-0-0-0-0-0-0-0-0||
D||-2-2-2-2-2-2-2-2-2-2-2-2-2-2-2-2-2-2-2||
A||-2-2-2-2-2-2-2-2-2-3-3-3-3-3-3-3-3-3-3||
E||-0-0-0-0-0-0-0-0-0-x-x-x-x-x-x-x-x-x-x||
   She changes everytime you look (all gone away)

E||-0-0-0-0-0-0-0-0-0-0-0-0-0-0-0-0-0-0-0||
B||-0-0-0-0-0-0-0-0-3-3-3-3-3-3-3-0-0-0-0||
G||-0-0-0-0-0-0-0-0-2-2-2-2-2-2-2-0-0-0-0||
D||-2-2-2-2-2-2-2-2-0-0-0-0-0-0-0-2-2-2-2||
A||-3-3-3-3-3-3-3-3-0-0-0-0-0-0-0-3-3-3-3||
E||-x-x-x-x-x-x-x-x-x-x-x-x-x-x-x-x-x-x-x||
   By summer it was all gone now she's moved on (she's moving on)

E||-0-0-0-0-0-0-0-0-0-0-0-0-0-0-0-0-0-0-0||
B||-0-0-0-0-0-0-0-0-0-0-0-0-0-0-0-0-0-0-0||
G||-0-0-0-0-0-0-0-0-0-0-0-0-0-0-0-0-0-0-0||
D||-2-2-2-2-2-2-2-2-2-2-2-2-2-2-2-2-2-2-2||
A||-2-2-2-2-2-2-2-2-2-3-3-3-3-3-3-3-3-3-3||
E||-0-0-0-0-0-0-0-0-0-x-x-x-x-x-x-x-x-x-x||
   She called you every other day (all gone away)

E||-0-0-0-0-0-0-0-0-0-0-0-0-0-0-0-0-0-0-0||
B||-0-0-0-0-0-0-0-0-3-3-3-3-3-3-3-0-0-0-0||
G||-0-0-0-0-0-0-0-0-2-2-2-2-2-2-2-0-0-0-0||
D||-2-2-2-2-2-2-2-2-0-0-0-0-0-0-0-2-2-2-2||
A||-3-3-3-3-3-3-3-3-0-0-0-0-0-0-0-3-3-3-3||
E||-x-x-x-x-x-x-x-x-x-x-x-x-x-x-x-x-x-x-x||
   So savour it it's all gone now she's moved on (she's moving on)

Interlude (2:35)
Guitar 2
E||-0-0-0-0-0-0-0-0-0-0-0-0-0-0-0-0-||
B||-0-0-0-0-0-0-0-0-0-0-0-0-0-0-0-0-||
G||-0-0-0-0-0-0-0-0-0-0-0-0-0-0-0-0-||
D||-2-2-2-2-2-2-2-2-2-2-2-2-2-2-2-2-||
A||-3-3-3-3-3-3-3-3-3-3-3-3-3-3-3-3-||
E||-x-x-x-x-x-x-x-x-x-x-x-x-x-x-x-x-||
   She’s moved on

E||-0-0-0-0-0-0-0-0-0-0-0-0-0-0-0-0-||
B||-0-0-0-0-0-0-0-0-0-0-0-0-0-0-0-0-||
G||-0-0-0-0-0-0-0-0-0-0-0-0-0-0-0-0-||
D||-2-2-2-2-2-2-2-2-2-2-2-2-2-2-2-2-||
A||-3-3-3-3-3-3-3-3-3-3-3-3-3-3-3-3-||
E||-x-x-x-x-x-x-x-x-x-x-x-x-x-x-x-x-||
   She’s moved on

E||-0-0-0-0-0-0-0-0-0-0-0-0-0-0-0-0-||
B||-0-0-0-0-0-0-0-0-0-0-0-0-0-0-0-0-||
G||-0-0-0-0-0-0-0-0-0-0-0-0-0-0-0-0-||
D||-2-2-2-2-2-2-2-2-2-2-2-2-2-2-2-2-||
A||-3-3-3-3-3-3-3-3-3-3-3-3-3-3-3-3-||
E||-x-x-x-x-x-x-x-x-x-x-x-x-x-x-x-x-||
   She’s moved on

E||-0-0-0-0-0-0-0-0-0-0-0-0-0-0-0-0-||
B||-0-0-0-0-0-0-0-0-0-0-0-0-0-0-0-0-||
G||-0-0-0-0-0-0-0-0-0-0-0-0-0-0-0-0-||
D||-2-2-2-2-2-2-2-2-2-2-2-2-2-2-2-2-||
A||-3-3-3-3-3-3-3-3-3-3-3-3-3-3-3-3-||
E||-x-x-x-x-x-x-x-x-x-x-x-x-x-x-x-x-||
   She’s moved on

Interlude III (2:48)
Guitar I & II
E||-0-----0----------3-------3-3-3--||
B||-0-----0----------3-------3-3-3--||
G||-0-----0----------0-------0-0-0--||
D||-2-----2----------0-------0-0-0--||Guitar 1
A||-2-----2----------2-------2-2-2--||
E||-0-----0----------3-------3-3-3--||

E||---------------------------------||
B||---------------------------------||
G||---------------------------------||
D||-9-----9s5--------5--------------||Guitar 2
A||---------------------------------||
E||---------------------------------||

E||-0-----0----------3-------3-3-3--||
B||-0-----0----------3-------3-3-3--||
G||-0-----0----------0-------0-0-0--||
D||-2-----2----------0-------0-0-0--||Guitar 1
A||-2-----2----------2-------2-2-2--||
E||-0-----0----------3-------3-3-3--||

E||---------------------------------||
B||---------------------------------||
G||---------------------------------||
D||-9-----9s5--------5--------------||Guitar 2
A||---------------------------------||
E||---------------------------------||

E||-2-----2----------3-------3-3-3--||
B||-3-----3----------4-------4-4-4--||
G||-2-----3----------3-------3-3-3--||
D||-0-----0----------0-------0-0-0--||Guitar 1
A||-x-----x----------x-------x-x-x--||
E||-x-----x----------x-------x-x-x--||

E||---------------------------------||
B||---------------------------------||
G||---------------------------------||
D||-1-----1s2--------2--------------||Guitar 2
A||---------------------------------||
E||---------------------------------||

Chorus (2:59)
Guitar 2
E||-0-0-0-0-0-0-0-0-0-0-0-0-0-0-0-0-0-0-0||
B||-0-0-0-0-0-0-0-0-0-0-0-0-0-0-0-0-0-0-0||
G||-0-0-0-0-0-0-0-0-0-0-0-0-0-0-0-0-0-0-0||
D||-2-2-2-2-2-2-2-2-2-2-2-2-2-2-2-2-2-2-2||
A||-2-2-2-2-2-2-2-2-2-3-3-3-3-3-3-3-3-3-3||
E||-0-0-0-0-0-0-0-0-0-0-0-0-0-0-0-0-0-0-0||
   She changes everytime you look

E||-0-0-0-0-0-0-0-0-0-0-0-0-0-0-0-0-0-0-0||
B||-0-0-0-0-0-0-0-0-3-3-3-3-3-3-3-0-0-0-0||
G||-0-0-0-0-0-0-0-0-2-2-2-2-2-2-2-0-0-0-0||
D||-2-2-2-2-2-2-2-2-0-0-0-0-0-0-0-2-2-2-2||
A||-3-3-3-3-3-3-3-3-0-0-0-0-0-0-0-3-3-3-3||
E||-0-0-0-0-0-0-0-0-0-0-0-0-0-0-0-0-0-0-0||
   By summer it was all gone now she's moved on

E||-0-0-0-0-0-0-0-0-0-0-0-0-0-0-0-0-0-0-0||
B||-0-0-0-0-0-0-0-0-0-0-0-0-0-0-0-0-0-0-0||
G||-0-0-0-0-0-0-0-0-0-0-0-0-0-0-0-0-0-0-0||
D||-2-2-2-2-2-2-2-2-2-2-2-2-2-2-2-2-2-2-2||
A||-2-2-2-2-2-2-2-2-2-2-3-3-3-3-3-3-3-3-3||
E||-0-0-0-0-0-0-0-0-0-0-0-0-0-0-0-0-0-0-0||
   She called you every other day (all gone away)

E||-0-0-0-0-0-0-0-0-0-0-0-0-0-0-0-0-0-0-0||
B||-0-0-0-0-0-0-0-0-0-3-3-3-3-3-3-3-0-0-0||
G||-0-0-0-0-0-0-0-0-0-2-2-2-2-2-2-2-0-0-0||
D||-2-2-2-2-2-2-2-2-2-0-0-0-0-0-0-0-2-2-2||
A||-3-3-3-3-3-3-3-3-3-0-0-0-0-0-0-0-3-3-3||
E||-0-0-0-0-0-0-0-0-0-0-0-0-0-0-0-0-0-0-0||
   So savour it it's all gone now she's moved on (she's moving on)

Solo (3:25)

Outro (5:00)
Guitar II
E||-0-0-0-0-0-0-0-0-0-0-0-0-0-0-0-0-||
B||-0-0-0-0-0-0-0-0-0-0-0-0-0-0-0-0-||
G||-0-0-0-0-0-0-0-0-0-0-0-0-0-0-0-0-||
D||-2-2-2-2-2-2-2-2-2-2-2-2-2-2-2-2-||Guitar 2
A||-2-2-2-2-2-2-2-2-3-3-3-3-3-3-3-3-||
E||-0-0-0-0-0-0-0-0-x-x-x-x-x-x-x-x-||
                        All gone away

E||-0-0-0-0-0-0-0-0-0-0-0-0-0-0-0-0-||
B||-3-3-3-3-3-3-3-3-0-0-0-0-0-0-0-0-||
G||-2-2-2-2-2-2-2-2-0-0-0-0-0-0-0-0-||
D||-0-0-0-0-0-0-0-0-2-2-2-2-2-2-2-2-||
A||-x-x-x-x-x-x-x-x-3-3-3-3-3-3-3-3-||
E||-x-x-x-x-x-x-x-x-x-x-x-x-x-x-x-x-||
                        She’s moving on


            
            
Suggest correction
Creating personal tab
Creating personal tab
You can edit any tab online and save it as your Personal.

You can edit, replace or remove any tab part or add personal notes – all changes will be seen only by you.

Personal tabs can be accessed anytime from any device, even offline.
Learn more »
comments
print report bad tab
1 comment total.
0 reply
Neverlasting 64 May 08, 2012 11:56 AM

I think the last chord in "Interlude III" should be B7 instead.

guest
Wanna post a correction for this tab? Suggest correction