Oops, an error
Loading. Please wait.

Slave Called Shiver bass

version 1
version 1

Whole song

Interactive

3,036 views 1 this week
2 commentsread comments
1 2 3 4 5
x 4
add to favorites
×
Save as Personal and add changes to this tab that will be seen only by you. Learn more ›
×
You can save this tab as Personal to edit and correct it or add notes. All changes will be seen only by you. Learn more »
launch autoscroll
font size
0
reset
guitar tuner
edit
Autoscroll
slow
fast
+/-
esc
set tempo
stop
Author
Difficulty
I've taken myself the privilege not to write down every little thing like how many times 
play verse 1 and how many times you play the bridge. The song itself is very very 
and requires mainly good technique. keep going with the bass line and U'll do just fine

Main bass line
G----------------------------------------------------------------------------|
D--------------------5--5----------------------------------------------------|
A------5h7---5--7----------0--4--0--3 ---------------------------------------|
E--0-------------------------------------------------------------------------|

Bridge
G----------------------------------------------------------------------------|
D----------------------------------------------------------------------------|
A----------7--------------------5----------------------3---------------------|
E----------------------------------------------------------------------------|

Enjoy!
Suggest correction
Creating personal tab
Creating personal tab
You can edit any tab online and save it as your Personal.

You can edit, replace or remove any tab part or add personal notes – all changes will be seen only by you.

Personal tabs can be accessed anytime from any device, even offline.
Learn more »
comments
print report bad tab
2 comments total.
0 reply
SnotNosedPunk 31 Feb 01, 2011 09:35 AM

Great tab, I've been looking for this for a while!

0 reply
sdjustinr 314 Jan 08, 2017 07:44 PM

Been playing this by ear for a while and could never figure out why it sounded wrong. Then I found this tab.. good work!

guest
You may want to rate the tab now too:
select rating
Wanna post a correction for this tab? Suggest correction