Oops, an error
Loading. Please wait.

The Blind House tab

version 1
version 1

Whole song

Interactive

15,540 views 6 this week
10 commentsread comments
1 2 3 4 5
x 11
add to favorites
×
Save as Personal and add changes to this tab that will be seen only by you. Learn more ›
×
You can save this tab as Personal to edit and correct it or add notes. All changes will be seen only by you. Learn more »
launch autoscroll
font size
0
reset
how to read this tab
guitar tuner
edit
Autoscroll
slow
fast
+/-
esc
set tempo
stop
-------------------------------------------------------------------------------
                             The Blind House – Porcupine Tree
-------------------------------------------------------------------------------
Album: The Incident
Date of release: September 15th, 2009
Tabbed by: Root Beer
Timing: 5/4 except where noted
Tuning: Drop D (DADGBE)

Intro: (distortion)
e|-------|
B|-------|
G|-------|
D|-1--1--|
A|-1--1--|
D|-1--1--|
  (These are tens) V
e|---------------------------------------|
B|---------------------------------------|
G|---7-7-7-7-7-101010106-6-6-6-6-6-------|
D|-0-------------------------------1--1--| x4
A|-0-5-5-5-5-5-8-8-8-8-4-4-4-4-4-4-1--1--|
D|-0-------------------------------1--1--|

e|---------------------------------------|
B|---------------------------------------|
G|---111111111114141414101010101010------|
D|-0-------------------------------1--1--| x4
A|-0-9-9-9-9-9-121212128-8-8-8-8-8-1--1--|
D|-0-------------------------------1--1--|

Verse 1: (clean)
“lyrics here”
e|---------------------------------------------------------------------------|
B|---------------------------------------------------------------------------|
G|-7---7---7-7---7-7-7---7---7-7---7-7-7/8---8---8-8---8-8-5---5---5-5---5-5-|
D|-7---7---7-7---7-7-7---7---7-7---7-7-7/8---8---8-8---8-8-5---5---5-5---5-5-|
A|-5---5---5-5---5-5-5---5---5-5---5-5-5/6---6---6-6---6-6-3---3---3-3---3-3-|
D|---------------------------------------------------------------------------|

e|-------------------------------------------------------------------------|
B|-------------------------------------------------------------------------|
G|-5---5---5-5---5-5-3---3---3-3---3-3-5---5---5-5---5-5-3---3---3-3---3-3-|
D|-5---5---5-5---5-5-3---3---3-3---3-3-5---5---5-5---5-5-3---3---3-3---3-3-|
A|-3---3---3-3---3-3-1---1---1-1---1-1-3---3---3-3---3-3-1---1---1-1---1-1-|
D|-------------------------------------------------------------------------|

e|---------------------------------------------------------------------------|
B|---------------------------------------------------------------------------|
G|-7---7---7-7---7-7-7---7---7-7---7-7-7/8---8---8-8---8-8-5---5---5-5---5-5-|
D|-7---7---7-7---7-7-7---7---7-7---7-7-7/8---8---8-8---8-8-5---5---5-5---5-5-|
A|-5---5---5-5---5-5-5---5---5-5---5-5-5/6---6---6-6---6-6-3---3---3-3---3-3-|
D|---------------------------------------------------------------------------|
                                                               (distortion)
e|---------------------------------------------------------------------|
B|---------------------------------------------------------------------|
G|-5---5---5-5---5-5-3---3---3-3---3-3-5---5---5-5---5-5-3---3---------|
D|-5---5---5-5---5-5-3---3---3-3---3-3-5---5---5-5---5-5-3---3---1--1--|
A|-3---3---3-3---3-3-1---1---1-1---1-1-3---3---3-3---3-3-1---1---1--1--|
D|---------------------------------------------------------------1--1--|

e|---------------------------------------|
B|---------------------------------------|
G|---111111111114141414101010101010------|
D|-0-------------------------------1--1--| x4
A|-0-9-9-9-9-9-121212128-8-8-8-8-8-1--1--|
D|-0-------------------------------1--1--|

Verse 2: (clean)
“lyrics here”
e|---------------------------------------------------------------------------|
B|---------------------------------------------------------------------------|
G|-7---7---7-7---7-7-7---7---7-7---7-7-7/8---8---8-8---8-8-5---5---5-5---5-5-|
D|-7---7---7-7---7-7-7---7---7-7---7-7-7/8---8---8-8---8-8-5---5---5-5---5-5-|
A|-5---5---5-5---5-5-5---5---5-5---5-5-5/6---6---6-6---6-6-3---3---3-3---3-3-|
D|---------------------------------------------------------------------------|

e|-------------------------------------------------------------------------|
B|-------------------------------------------------------------------------|
G|-5---5---5-5---5-5-3---3---3-3---3-3-5---5---5-5---5-5-3---3---3-3---3-3-|
D|-5---5---5-5---5-5-3---3---3-3---3-3-5---5---5-5---5-5-3---3---3-3---3-3-|
A|-3---3---3-3---3-3-1---1---1-1---1-1-3---3---3-3---3-3-1---1---1-1---1-1-|
D|-------------------------------------------------------------------------|

e|---------------------------------------------------------------------------|
B|---------------------------------------------------------------------------|
G|-7---7---7-7---7-7-7---7---7-7---7-7-7/8---8---8-8---8-8-5---5---5-5---5-5-|
D|-7---7---7-7---7-7-7---7---7-7---7-7-7/8---8---8-8---8-8-5---5---5-5---5-5-|
A|-5---5---5-5---5-5-5---5---5-5---5-5-5/6---6---6-6---6-6-3---3---3-3---3-3-|
D|---------------------------------------------------------------------------|
                                                                
e|-------------------------------------------------------------------------|
B|-------------------------------------------------------------------------|
G|-5---5---5-5---5-5-3---3---3-3---3-3-5---5---5-5---5-5-3---3---3-3---3-3-|
D|-5---5---5-5---5-5-3---3---3-3---3-3-5---5---5-5---5-5-3---3---3-3---3-3-|
A|-3---3---3-3---3-3-1---1---1-1---1-1-3---3---3-3---3-3-1---1---1-1---1-1-|
D|-------------------------------------------------------------------------|

Chorus: (distortion, 4/4 timing)
          “Freeeeeee looooooovvveee…”
e|---------------------------------------|
B|---------------------------------------|
G|---------------------------------------|
D|-5-5-5-5-5----1-1-1-1-1---1-1---1-1--1-| x2
A|-5-5-5-5-5----1-1-1-1-1---1-1---1-1--1-|
D|-5-5-5-5-5----1-1-1-1-1---1-1---1-1--1-|
           “Bring love to all my sisters…”
e|---------------------------------------------------------|
B|---------------------------------------------------------|
G|-10---10--10101010-10-101015----15---15151515--15--15-15-|
D|-8----8---8-8-8-8--8--8-8-13----13---13131313--13--13-13-|
A|-8----8---8-8-8-8--8--8-8-13----13---13131313--13--13-13-|
D|-8----8---8-8-8-8--8--8-8-13----13---13131313--13--13-13-|
          “Breeeeeaathe oooooouuuuttt…”
e|---------------------------------------|
B|---------------------------------------|
G|---------------------------------------|
D|-5-5-5-5-5----1-1-1-1-1---1-1---1-1--1-| x2
A|-5-5-5-5-5----1-1-1-1-1---1-1---1-1--1-|
D|-5-5-5-5-5----1-1-1-1-1---1-1---1-1--1-|
       “You don’t need to know their secrets… believe me…”
e|---------------------------------------------------------|
B|---------------------------------------------------------|
G|-10---10--10101010-10-10101515---15151515----------------|
D|-8----8---8-8-8-8--8--8-8-1313---13131314----------------|
A|-8----8---8-8-8-8--8--8-8-1313---13131314-(let-ring)-----|
D|-8----8---8-8-8-8--8--8-8-1313---13131314----------------|

e|-------------------------------------------------|
B|-10--10-1010h11----11----10--10-1010h11----11----|
G|-10--10-1010-------10----10--10-1010-------10----|
D|-8---8--8-8--------8-----8---8--8-8--------8-----|
A|-8---8--8-8--------8-----8---8--8-8--------8-----|
D|-8---8--8-8--------8-----8---8--8-8--------8-----|

Repeat Verse 2

Repeat Chorus

Rest

Bridge: (4:07) (clean)
e|----------------------------------------------------------|
B|----------------------------------------------------------|
G|----------------------------------------------------------|
D|-5--------\(1)-1------------------------------------------| x8
A|-5--------\(1)-1(let-ring)--------------------------------|
D|-5--------\(1)-1------------------------------------------|

Outro: (distortion)
e|-------|
B|-------|
G|-------|
D|-1--1--|
A|-1--1--|
D|-1--1--|

e|---------------------------------------|
B|---------------------------------------|
G|--------/(10)-10-\(6)-6----------------|
D|-0-------------------------------1--1--| x2
A|-0------/(8)--8--\(4)-4----------1--1--|
D|-0-------------------------------1--1--|

e|---------------------------------------|
B|---------------------------------------|
G|--------/(14)-14--\(10)-10-------------|
D|-0-------------------------------1--1--| x2
A|-0------/(12)-12--\(8)--8--------1--1--|
D|-0-------------------------------1--1--|

e|---------------------------------------|
B|---------------------------------------|
G|---111111111114141414101010101010------|
D|-0-------------------------------1--1--| x4
A|-0-9-9-9-9-9-121212128-8-8-8-8-8-1--1--|
D|-0-------------------------------1--1--|

END ABRUPTLY
===============================================================================

            
            
Suggest correction
Creating personal tab
Creating personal tab
You can edit any tab online and save it as your Personal.

You can edit, replace or remove any tab part or add personal notes – all changes will be seen only by you.

Personal tabs can be accessed anytime from any device, even offline.
Learn more »
comments
print report bad tab
10 comments total. Showing first comments.
-1 reply
maitepo 124 Sep 18, 2009 07:58 PM

Accurate + awesome!

+7 reply
GingerBassist42 22 Sep 22, 2009 02:13 PM

Great, though just saw SW explain and these are the verse chords (you can work out rhythm etc):

e|----------------------|
B|----------------------|
G|-7-7-5-5-3-5-3--------|
D|-7-5-5-3-3-3-3--------|
A|-5-6-6-5-5-4-4--------|
E|----------------------|

+4 reply
TABaficionado 51 Oct 01, 2009 04:19 PM

Why on earth does this have two 5-star ratings? Does anyone actually bother to play the tab, before they rate it? Because if they were to play the tab, they'd realize that 90% of the verse is wrong, the chorus is close, but wrong, and the intro and outro are, again, close but wrong. 5 stars should be given sparingly, to tabs that actually took time and effort to make, with accuracy in mind. The tab you wrote gives me the impression that you listened to The Blind House once, never gave it a listen again, and then decided to tab it about a week later. GingerBassist42 was kind enough to show the correct verse, though, and I give him props for that. Now you just have to fix the rest of the damn thing. 2/5

guest
You may want to rate the tab now too:
select rating
Wanna post a correction for this tab? Suggest correction