Oops, an error
Loading. Please wait.

The Sound Of Muzak Tab

version 1
version 1

Whole song

Interactive

46,676 views 99 this week
no commentswrite comment
1 2 3 4 5
accurate
x 3
add to favorites
launch autoscroll
font size
0
reset
how to read this tab
guitar tuner
Autoscroll
slow
fast
+/-
esc
set tempo
stop
Help us to improve Ultimate-Guitar.com Take our survey!
×
Author
Difficulty
Tuning
Tabbers playing skills
intermediate
D A D G B E
advanced
THE SOUND OF MUZAK
As recorded by Porcupine Tree
(From the 2002 Album IN ABSENTIA)

Transcribed by Zac Meadows and Erik Dietrich


Words and Music by Steven Wilson
Arranged by Porcupine Tree

Thanks to Rich who got this out of the Power Tab file, I don't use it so I wouldn't have
chance learning it (i'm to lazy to tab it out) if it weren't for Rich.

 [Intro/Verse #1]
     Q=100
     D5          Dm7/F Gm/Eb
    7/4
     Gtrs I, V
E||--------------------------------------------|
B||o-------------------------------------------|
G||------------------------------0-(0)---------|
D||----------0-------0---------0-------0---1-0-|
A||o---0-(0)-------3-----1-(1)-----------1-----|
D||--0---------0h3-----1-----------------------|


   D5          Dm7/F Gm/Eb
                                                5x
E|----------------------------------------------||
B|---------------------------------------------o||
G|-----------------------------0-(0)------------||
D|---------0-------0---------0-------0---1-0----||
A|---0-(0)-------3-----1-(1)-----------1-------o||
D|-0---------0h3-----1--------------------------||


 [Chorus #1]
     Asus4                           Dm9
    4/4
     Gtr IV
E||--0-----------------------------|-----------3-(3)------------------|
B||o-3-----------------------------|---6-(6)---------------6----------|
G||--2-----------------------------|-5--------------------------------|
D||--0-----------------------------|----------------------------------|
A||o-------------------------------|----------------------------------|
D||--------------------------------|----------------------------------|
|
 |   Gtrs I, V
E||--0-0-(0)-0-0-(0)-0-0-0--0--(0)-|-0-0--0--0-0-(0)-0-0-0-0--0--x-x--|
B||o-3-3-(3)-3-3-(3)-3-3-3--3--(3)-|-6-6--6--6-6-(6)-6-6-6-6--6--x-x--|
G||--2-2-(2)-2-2-(2)-2-2-2--2---2--|-5-5--5--5-5-(5)-5-5-5-5-(5)-x-x--|
D||--0-0-(0)-0-0-(0)-0-0-0-(0)--0--|-0-0--0--0-0-(0)-0-0-0-0-(0)-x-x--|
A||o-0-0-(0)-0-0-(0)-0-0-0-(0)--0--|----------------------------------|
D||--------------------------------|----------------------------------|


   Em7/C                               G7sus4/Bb
E|-------------3---(3)---------------|---1-(1)----------------------------||
B|-(1)---------3---(3)---------------|-----------3-(3)-------------------o||
G|-------------0---(0)---------------|-3----------------------------------||
D|-------------2---(2)---------------|------------------------------------||
A|-----------------------------------|-----------------------------------o||
D|-----------------------------------|------------------------------------||
|
E|--3--3-(3)-3---3-(3)-3-3-3--3--(3)-|-1-1--1--1-1-(1)-1-1-1-1-1--1--(1)--||
B|--3--3-(3)-3---3-(3)-3-3-3--3--(3)-|-1-1--1--1-1-(1)-1-1-1-1-1--1--(1)-o||
G|--0--0-(0)-0---0-(0)-0-0-0--0---0--|-0-0--0--0-0-(0)-0-0-0-0-0--0---0---||
D|--2--2-(2)-2---2-(2)-2-2-2-(2)--2--|-0-0--0--0-0-(0)-0-0-0-0-0-(0)--0---||
A|--3--3-(3)-3---3-(3)-3-3-3-(3)--3--|-1-1--1--1-1-(1)-1-1-1-1-1-(1)--1--o||
D|-----------------------------------|------------------------------------||


 [Pre-Verse/Verse #2]
     D5          Dm7/F Gm/Eb
    7/4
     Gtr III
E||------------------------------3-(3)---1p0-------|
B||o-----------------------------------3-----3---3-|
G||--------------------------------------------0---|
D||------------------------------------------------|
A||o-----------------------------------------------|
D||------------------------------------------------|
|
E||------------------------------------------------|
B||o-----------------------------------------------|
G||------------------------------0-(0)-------------|
D||----------0-------0---------0-------0-----1---0-|
A||o---0-(0)-------3-----1-(1)-----------1---------|
D||--0---------0h3-----1---------------------------|


   D5          Dm7/F Gm/Eb
   Gtr IV
                                                  3x
E|-----------------------------3-(3)---1p0--------||
B|-----------------------------------3-----3---3-o||
G|-------------------------------------------0----||
D|------------------------------------------------||
A|-----------------------------------------------o||
D|------------------------------------------------||
|
 |                                                3x
E|------------------------------------------------||
B|-----------------------------------------------o||
G|-----------------------------0-(0)--------------||
D|---------0-------0---------0-------0-----1---0--||
A|---0-(0)-------3-----1-(1)-----------1---------o||
D|-0---------0h3-----1----------------------------||


     D5          Dm7/F Gm/Eb
     Gtr III
E||------------------------------3-(3)---1p0-------|
B||o-----------------------------------3-----3---3-|
G||--------------------------------------------0---|
D||------------------------------------------------|
A||o-----------------------------------------------|
D||------------------------------------------------|
|
E||------------------------------------------------|
B||o-----------------------------------------------|
G||------------------------------0-(0)-------------|
D||----------0-------0---------0-------0-----1---0-|
A||o---0-(0)-------3-----1-(1)-----------1---------|
D||--0---------0h3-----1---------------------------|


   D5          Dm7/F Gm/Eb
E|-----------------------------3-(3)---1p0----------||
B|-----------------------------------3-----3---3---o||
G|-------------------------------------------0------||
D|--------------------------------------------------||
A|-------------------------------------------------o||
D|--------------------------------------------------||
|
E|--------------------------------------------------||
B|-------------------------------------------------o||
G|-----------------------------0-(0)----------------||
D|---------0-------0---------0-------0-----1---0----||
A|---0-(0)-------3-----1-(1)-----------1-----------o||
D|-0---------0h3-----1------------------------------||


 [Chorus #2]
     Asus4                           Dm9
    4/4
     Gtr IV
E||--0-----------------------------|-----------3-(3)------------------|
B||o-3-----------------------------|---6-(6)---------------6----------|
G||--2-----------------------------|-5--------------------------------|
D||--0-----------------------------|----------------------------------|
A||o-------------------------------|----------------------------------|
D||--------------------------------|----------------------------------|
|
E||--0-0-(0)-0-0-(0)-0-0-0--0--(0)-|-0-0--0--0-0-(0)-0-0-0-0--0--x-x--|
B||o-3-3-(3)-3-3-(3)-3-3-3--3--(3)-|-6-6--6--6-6-(6)-6-6-6-6--6--x-x--|
G||--2-2-(2)-2-2-(2)-2-2-2--2---2--|-5-5--5--5-5-(5)-5-5-5-5-(5)-x-x--|
D||--0-0-(0)-0-0-(0)-0-0-0-(0)--0--|-0-0--0--0-0-(0)-0-0-0-0-(0)-x-x--|
A||o-0-0-(0)-0-0-(0)-0-0-0-(0)--0--|----------------------------------|
D||--------------------------------|----------------------------------|


   Em7/C                               G7sus4/Bb
                                                                          4x
E|-------------3---(3)---------------|---1-(1)----------------------------||
B|-(1)---------3---(3)---------------|-----------3-(3)-------------------o||
G|-------------0---(0)---------------|-3----------------------------------||
D|-------------2---(2)---------------|------------------------------------||
A|-----------------------------------|-----------------------------------o||
D|-----------------------------------|------------------------------------||
|
 |                                                                        4x
E|--3--3-(3)-3---3-(3)-3-3-3--3--(3)-|-1-1--1--1-1-(1)-1-1-1-1-1--1--(1)--||
B|--3--3-(3)-3---3-(3)-3-3-3--3--(3)-|-1-1--1--1-1-(1)-1-1-1-1-1--1--(1)-o||
G|--0--0-(0)-0---0-(0)-0-0-0--0---0--|-0-0--0--0-0-(0)-0-0-0-0-0--0---0---||
D|--2--2-(2)-2---2-(2)-2-2-2-(2)--2--|-0-0--0--0-0-(0)-0-0-0-0-0-(0)--0---||
A|--3--3-(3)-3---3-(3)-3-3-3-(3)--3--|-1-1--1--1-1-(1)-1-1-1-1-1-(1)--1--o||
D|-----------------------------------|------------------------------------||


 [Interlude]
   D5          F6    G5/C                Em7/G
  7/4
   Gtr III
E|-----------------------------3-(3)---1p0-------|
B|---------3-------3---------3-------3-----3---3-|
G|---2-(2)-------2-----0-(0)-----------------0---|
D|-0---------0h3---------------------------------|
A|-------------------3---------------------------|
D|-----------------------------------------------|
|
 | Gtr V
E|-----------------------------------------------|
B|-----------------------------------------------|
G|-----------------------------------------------|
D|-----------------------------------------------|
A|-----------------------------------------------|
D|-----------------------------------------------|


   D5          F6    G5/C                Em7/G
E|-----------------------------3-(3)---1p0--------|
B|---------3-------3---------3-------3-----3---3--|
G|---2-(2)-------2-----0-(0)-----------------0----|
D|-0---------0h3----------------------------------|
A|-------------------3----------------------------|
D|------------------------------------------------|
|
E|-----------------------------3-(3)---1p0--------|
B|-----------------------------------3-----3---3--|
G|-------------------------------------------0----|
D|------------------------------------------------|
A|------------------------------------------------|
D|------------------------------------------------|


 [Guitar Solo]
   D5            F6    G5/C                   Em7/G
  7/4
   Gtrs III, V
E|----------------------------------3-(3)---1p0-------|
B|-----------3-------3------------3-------3-----3---3-|
G|-----2-(2)-------2--------0-(0)-----------------0---|
D|-0-----------0h3------------------------------------|
A|---------------------3------------------------------|
D|----------------------------------------------------|
|
 | Gtr II
 |   ~~~~~~~~                                       ~~~
E|----------------------------------------------------|
B|----------------------------------------------------|
G|---------------------5------------------------------|
D|-5h7---(7)-------------5\---------------------------|
A|------------------------------------------8p5-5---5-|
D|----------------------------------------------------|


   Gsus2         Em7       G5/F                   Em7/G
E|---------------------------------------3-(3)--1p0----------|
B|-----------3---------3---------------3------3-----3---3----|
G|-----2-(2)---------0-----------0-(0)----------------0------|
D|-------------0h=2--------3---------------------------------|
A|-----------------------------------------------------------|
D|--5--------------------------------------------------------|
|
 |~~~~~~~~~~~~~~~~~~~                  ~
E|-----------------------------------------------------------|
B|------------------------------------------5h6--------------|
G|----------------------------------5--7---------------------|
D|---------------------------3-5-7---------------------------|
A|-(5)-----------(5)-----3-5---------------------------------|
D|-----------------------------------------------------------|


   D5                F6        G5/C                  Em7/G
E|-----------------------------------------3-(3)---1p0---------|
B|-------------3-----------3-----------3---------3-----3----3--|
G|-------2-(2)-----------2-------0-(0)-------------------0-----|
D|-0---------------0h=3----------------------------------------|
A|-----------------------------3-------------------------------|
D|-------------------------------------------------------------|
|
 |                                                       ~~~~~~~
E|-----------------8-(8)-------------------8-(8)---------------|
B|-------------5h6---------6p5---------5h6---------6p5---------|
G|-------5--7------------------------------------------7-9-(9)-|
D|---5-7-------------------------------------------------------|
A|-------------------------------------------------------------|
D|-------------------------------------------------------------|


   Gsus2             Em7   G5/F                        Em7/G
E|------------------------------------------3-(3)----1p0-------|
B|--------------3--------3-------------3----------3------3---3-|
G|-------2-(2)---------0---------0-(0)---------------------0---|
D|-----------------0h2-----3-----------------------------------|
A|-------------------------------------------------------------|
D|--5----------------------------------------------------------|
|
 |~~~~~  ~~~~~~~
E|------------------------------------------8------------8-----|
B|---------------------------------------10---------10---------|
G|-(9)-7-7-(7)\--------------10-12-----------------------------|
D|-------------------------------------------------------------|
A|-------------------------------------------------------------|
D|-------------------------------------------------------------|


   D5               F6    G5/C                                   Em7/G
E|-----------------------------------------------------3-(3)---1p0------------|
B|--------------3-------3--------------------3---------------3-----3-------3--|
G|------2--(2)--------2----------------0-(0)----------------------------0-----|
D|---0------------0h3---------------------------------------------------------|
A|------------------------3---------------------------------------------------|
D|----------------------------------------------------------------------------|
|
 |      ~~                      ~~~~~~~
E|-/10-10-(10)\---------------------------------------------------------------|
B|------------------------8b10r(8)b10====(8)---(8)r(8)p6-----------5b6====(5)-|
G|----------------------------------------------------------------------------|
D|----------------------------------------------------------------------------|
A|----------------------------------------------------------------------------|
D|----------------------------------------------------------------------------|


   Gsus2                    Em7   G5/F                Em7/G
E|------------------------------------------3-(3)---1p0----------|
B|------------------3-----------3---------3-------3-----3---3----|
G|----------2---(2)-----------0-----0-(0)-----------------0------|
D|------------------------0h2-----3------------------------------|
A|---------------------------------------------------------------|
D|--5------------------------------------------------------------|
|
 |                                        ~    ~~~~~~~~
E|---------------------------------------------------------------|
B|-(5)r-5---------------------------------------------------6----|
G|--------7p==5--7----(7)-5---------------5----5----5---5h7---7--|
D|--------------------------0------------------------------------|
A|---------------------------------------------------------------|
D|---------------------------------------------------------------|


   D5           F6             G5/C                               Em7/G
E|----------------------------------------------------3-(3)---1p==0----------------|
B|----------3-----------3---------------------------3-------3---------3-------3----|
G|---2-(2)-----------2-------------------0------(0)------------------------0-------|
D|-0----------0h3------------------------------------------------------------------|
A|------------------------------3--------------------------------------------------|
D|---------------------------------------------------------------------------------|
|
 | ~                    ~~~~~~~
E|----------------------------------8----------------------------------------------|
B|---6-(6)\-----8b10r==(8)b10==(8)-(8)r-(8)pb10r(8)-6---------8p6p==5-6b8====(6)r5-|
G|-7-------------------------------------------------------------------------------|
D|---------------------------------------------------------------------------------|
A|---------------------------------------------------------------------------------|
D|---------------------------------------------------------------------------------|


   Gsus2           Em7   G5/F                Em7/G
E|---------------------------------3-(3)---1p0-----------|
B|-----------3---------3---------3-------3-----3---3-----|
G|-----2-(2)---------0-----0-(0)-----------------0-------|
D|---------------0h2-----3-------------------------------|
A|-------------------------------------------------------|
D|-5-----------------------------------------------------|
|
 |                     ~   ~     ~~~~          ~
E|-------------------------------------------------------|
B|---6-5-(5)---------------------------------------------|
G|-------------5---5s2-2-0-2-----5-5-----5---5-5---7-7---|
D|-------------------------------------------------------|
A|-------------------------------------------------------|
D|-------------------------------------------------------|


   D5               F6    G5/C                       Em7/G
E|----------------------------------------3--(3)---1p0-----------|
B|--------------3-------3----------3-------------3-----3---3-----|
G|-------2-(2)--------2------0-(0)-----------------------0-------|
D|-0--------------0h3--------------------------------------------|
A|------------------------3--------------------------------------|
D|---------------------------------------------------------------|
|
E|---------------------------------------------------------------|
B|---------------------------------------------------------------|
G|-7-7-7-7-(7)\--------------------------------------------------|
D|------------------------------3--5-5b6r(5)--5--5-5-5-5-3---3b4r|
A|--------------------------/5-----------------------------5-----|
D|---------------------------------------------------------------|


   Gsus2           Em7      G5/F                     Em7/G
E|-----------------------------------------3-(3)---1p0---------|
B|-------------3--------3--------------3---------3-----3-----3-|
G|-------2-(2)--------0-----------0-(0)------------------0-----|
D|---------------0h2--------3----------------------------------|
A|-------------------------------------------------------------|
D|--5----------------------------------------------------------|
|
 |     ~
E|---------------------------------------8-------------8-8-/10-|
B|-----------------------------------5h6---6p=5----5h6---------|
G|------------------------------5h7--------------7-------------|
D|-(3)--------------------3-5s7--------------------------------|
A|-----5-------------/3-5--------------------------------------|
D|-------------------------------------------------------------|


   D5               F6             G5/C                             Em7/G
E|----------------------------------------------------3-(3)-------1p0-----------|
B|-------------3---------3--------------------------3-------3-----------3-----3-|
G|-----2--(2)---------2----------------------0--(0)------------------------0----|
D|--0-------------0h3-----------------------------------------------------------|
A|-----------------------------------3------------------------------------------|
D|------------------------------------------------------------------------------|
|
 |  ~~                               ~~~~~~~                      ~~~~~~~~~
E|----------------------12b13r(12)-(12)b13-(12)p10------------------------------|
B|-10-10-(10)\------------------------------------------------13h15---(15)------|
G|---------------------------------------------------------------------------12-|
D|------------------------------------------------------------------------------|
A|------------------------------------------------------------------------------|
D|------------------------------------------------------------------------------|


       Gsus2           Em7          G5/F                                  Em7/G
E|-----------------------------------------------------------3---(3)----1p0----------|
B|----------------3-------------3---------------3--------------------3--------3----3-|
G|--------2--(2)------------0---------0-(0)--------------------------------------0---|
D|-------------------0h==2----------3------------------------------------------------|
A|-----------------------------------------------------------------------------------|
D|------5----------------------------------------------------------------------------|
|
E|-----17---(17)------------------------12b13r(12)-(12)b13r(12)-(12)---10---(10)-----|
B|---x-----------15-15-(15)---(15)\----------------------------------------------8---|
G|-x---------------------------------------------------------------------------------|
D|-----------------------------------------------------------------------------------|
A|-----------------------------------------------------------------------------------|
D|-----------------------------------------------------------------------------------|


 [Chorus Breakdown]
   Asus4                                   Dm9
  4/4
   Gtrs I, V
E|-0--------0--(0)-0-0-(0)-0-0-0--0--(0)-|---0--0-0-0-0-(0)-0-0-0-0--0--x-x-|
B|-3--------3--(3)-3-3-(3)-3-3-3--3--(3)-|---6--6-6-6-6-(6)-6-6-6-6--6--x-x-|
G|-2--------2--(2)-2-2-(2)-2-2-2--2---2--|---5--5-5-5-5-(5)-5-5-5-5-(5)-x-x-|
D|-0--------0--(0)-0-0-(0)-0-0-0-(0)--0--|---0--0-0-0-0-(0)-0-0-0-0-(0)-x-x-|
A|-0--------0--(0)-0-0-(0)-0-0-0-(0)--0--|----------------------------------|
D|---------------------------------------|----------------------------------|
|
 | Gtr II
 |                                           >
 |        ~~~~~~~~~~~~~~~~~~~~~~~~~~~~~~~~~~~~~~
E|---------------------------------------|----------------------------------|
B|-8-(8)s10---(10)-----------------------|-(10)-----------------------------|
G|---------------------------------------|----------------------------------|
D|---------------------------------------|----------------------------------|
A|---------------------------------------|----------------------------------|
D|---------------------------------------|----------------------------------|


   Em7/C                           G7sus4/Bb
E|-3-3-(3)-3-3-(3)-3-3-3--3--(3)-|-1-1-1-1-1-(1)-1-1-1-1-1--1--(1)-|
B|-3-3-(3)-3-3-(3)-3-3-3--3--(3)-|-1-1-1-1-1-(1)-1-1-1-1-1--1--(1)-|
G|-0-0-(0)-0-0-(0)-0-0-0--0---0--|-0-0-0-0-0-(0)-0-0-0-0-0--0---0--|
D|-2-2-(2)-2-2-(2)-2-2-2-(2)--2--|-0-0-0-0-0-(0)-0-0-0-0-0-(0)--0--|
A|-3-3-(3)-3-3-(3)-3-3-3-(3)--3--|-1-1-1-1-1-(1)-1-1-1-1-1-(1)--1--|
D|-------------------------------|---------------------------------|


   Asus4                             Dm9
E|-0-0-(0)-0---0-(0)-0-0-0--0--(0)-|-0-0--0--0-0-(0)-0-0-0-0--0--x-x-|
B|-3-3-(3)-3---3-(3)-3-3-3--3--(3)-|-6-6--6--6-6-(6)-6-6-6-6--6--x-x-|
G|-2-2-(2)-2---2-(2)-2-2-2--2---2--|-5-5--5--5-5-(5)-5-5-5-5-(5)-x-x-|
D|-0-0-(0)-0---0-(0)-0-0-0-(0)--0--|-0-0--0--0-0-(0)-0-0-0-0-(0)-x-x-|
A|-0-0-(0)-0---0-(0)-0-0-0-(0)--0--|---------------------------------|
D|---------------------------------|---------------------------------|
|
 | Gtr IV
E|-----------0---(0)---------------|-----------3-(3)-----------------|
B|---3-(3)-------------------------|---6-(6)---------------6---------|
G|-2------------------------2------|-5-------------------------------|
D|---------------------------------|---------------------------------|
A|---------------------------------|---------------------------------|
D|---------------------------------|---------------------------------|


   Em7/C                             G7sus4/Bb
E|-3-3-(3)-3---3-(3)-3-3-3--3--(3)-|-1-1-1-1--1-(1)-1-1-1-1-1--1--(1)-|
B|-3-3-(3)-3---3-(3)-3-3-3--3--(3)-|-1-1-1-1--1-(1)-1-1-1-1-1--1--(1)-|
G|-0-0-(0)-0---0-(0)-0-0-0--0---0--|-0-0-0-0--0-(0)-0-0-0-0-0--0---0--|
D|-2-2-(2)-2---2-(2)-2-2-2-(2)--2--|-0-0-0-0--0-(0)-0-0-0-0-0-(0)--0--|
A|-3-3-(3)-3---3-(3)-3-3-3-(3)--3--|-1-1-1-1--1-(1)-1-1-1-1-1-(1)--1--|
D|---------------------------------|----------------------------------|
|
E|---3-(3)-------------------------|---------^1-(1)-------------------|
B|-----------5---(5)---------------|---------^3-(3)-------------------|
G|-5------------------------5\-----|-3-------^3-(3)-------------------|
D|---------------------------------|----------------------------------|
A|---------------------------------|----------------------------------|
D|---------------------------------|----------------------------------|


 [Chorus #4/Outro]
     Asus4                             Dm9
E||--0-0-(0)-0---0-(0)-0-0-0--0--(0)-|-0-0--0--0-0-(0)-0-0-0-0--0--x-x-|
B||o-3-3-(3)-3---3-(3)-3-3-3--3--(3)-|-6-6--6--6-6-(6)-6-6-6-6--6--x-x-|
G||--2-2-(2)-2---2-(2)-2-2-2--2---2--|-5-5--5--5-5-(5)-5-5-5-5-(5)-x-x-|
D||--0-0-(0)-0---0-(0)-0-0-0-(0)--0--|-0-0--0--0-0-(0)-0-0-0-0-(0)-x-x-|
A||o-0-0-(0)-0---0-(0)-0-0-0-(0)--0--|---------------------------------|
D||----------------------------------|---------------------------------|
|
E||------------0---(0)---------------|-----------3-(3)-----------------|
B||o---3-(3)-------------------------|---6-(6)---------------6---------|
G||--2------------------------2------|-5-------------------------------|
D||----------------------------------|---------------------------------|
A||o---------------------------------|---------------------------------|
D||----------------------------------|---------------------------------|


   Em7/C                               G7sus4/Bb
E|--3--3-(3)-3---3-(3)-3-3-3--3--(3)-|-1-1--1--1-1-(1)-1-1-1-1-1--1--(1)--||
B|--3--3-(3)-3---3-(3)-3-3-3--3--(3)-|-1-1--1--1-1-(1)-1-1-1-1-1--1--(1)-o||
G|--0--0-(0)-0---0-(0)-0-0-0--0---0--|-0-0--0--0-0-(0)-0-0-0-0-0--0---0---||
D|--2--2-(2)-2---2-(2)-2-2-2-(2)--2--|-0-0--0--0-0-(0)-0-0-0-0-0-(0)--0---||
A|--3--3-(3)-3---3-(3)-3-3-3-(3)--3--|-1-1--1--1-1-(1)-1-1-1-1-1-(1)--1--o||
D|-----------------------------------|------------------------------------||
|
E|-------------3---(3)---------------|---1-(1)----------------------------||
B|-(1)---------3---(3)---------------|-----------3-(3)-------------------o||
G|-------------0---(0)---------------|-3----------------------------------||
D|-------------2---(2)---------------|------------------------------------||
A|-----------------------------------|-----------------------------------o||
D|-----------------------------------|------------------------------------||


   Asus4                             Dm9
E|-0-0-(0)-0---0-(0)-0-0-0--0--(0)-|-0-0--0--0-0-(0)-0-0-0-0--0--x-x-|
B|-3-3-(3)-3---3-(3)-3-3-3--3--(3)-|-6-6--6--6-6-(6)-6-6-6-6--6--x-x-|
G|-2-2-(2)-2---2-(2)-2-2-2--2---2--|-5-5--5--5-5-(5)-5-5-5-5-(5)-x-x-|
D|-0-0-(0)-0---0-(0)-0-0-0-(0)--0--|-0-0--0--0-0-(0)-0-0-0-0-(0)-x-x-|
A|-0-0-(0)-0---0-(0)-0-0-0-(0)--0--|---------------------------------|
D|---------------------------------|---------------------------------|
|
E|-----------0---(0)---------------|-----------3-(3)-----------------|
B|---3-(3)-------------------------|---6-(6)---------------6---------|
G|-2------------------------2------|-5-------------------------------|
D|---------------------------------|---------------------------------|
A|---------------------------------|---------------------------------|
D|---------------------------------|---------------------------------|
|
 | Gtr II
 | <                                 <
E|-5-------------------------------|-8-------------------------------|
B|---------------------------------|---------------------------------|
G|---------------------------------|---------------------------------|
D|---------------------------------|---------------------------------|
A|---------------------------------|---------------------------------|
D|---------------------------------|---------------------------------|


   Em7/C                               G7sus4/Bb
E|--3--3-(3)-3---3-(3)-3-3-3--3--(3)-|-1-1--1--1-1-(1)-1-1-1-1-1--1--(1)-|
B|--3--3-(3)-3---3-(3)-3-3-3--3--(3)-|-1-1--1--1-1-(1)-1-1-1-1-1--1--(1)-|
G|--0--0-(0)-0---0-(0)-0-0-0--0---0--|-0-0--0--0-0-(0)-0-0-0-0-0--0---0--|
D|--2--2-(2)-2---2-(2)-2-2-2-(2)--2--|-0-0--0--0-0-(0)-0-0-0-0-0-(0)--0--|
A|--3--3-(3)-3---3-(3)-3-3-3-(3)--3--|-1-1--1--1-1-(1)-1-1-1-1-1-(1)--1--|
D|-----------------------------------|-----------------------------------|
|
E|-------------3---(3)---------------|---1-(1)---------------1-----------|
B|-(1)---------3---(3)---------------|-----------3-(3)------------3------|
G|-------------0---(0)---------------|-3-----------------3---------------|
D|-------------2---(2)---------------|-----------------------------------|
A|-----------------------------------|-----------------------------------|
D|-----------------------------------|-----------------------------------|
|
 |  <                                  <
E|--3--------------------------------|-6-----------(6)---5---------------|
B|-----------------------------------|-----------------------------------|
G|-----------------------------------|-----------------------------------|
D|-----------------------------------|-----------------------------------|
A|-----------------------------------|-----------------------------------|
D|-----------------------------------|-----------------------------------|


   Asus4                               Dm9
E|--0--0-(0)-0---0-(0)-0-0-0--0--(0)-|-0-0--0--0-0-(0)-0-0-0-0--0--x-x-|
B|--3--3-(3)-3---3-(3)-3-3-3--3--(3)-|-6-6--6--6-6-(6)-6-6-6-6--6--x-x-|
G|--2--2-(2)-2---2-(2)-2-2-2--2---2--|-5-5--5--5-5-(5)-5-5-5-5-(5)-x-x-|
D|--0--0-(0)-0---0-(0)-0-0-0-(0)--0--|-0-0--0--0-0-(0)-0-0-0-0-(0)-x-x-|
A|--0--0-(0)-0---0-(0)-0-0-0-(0)--0--|---------------------------------|
D|-----------------------------------|---------------------------------|
|
E|-------------0---(0)---------------|-----------3-(3)-----------------|
B|-----3-(3)-------------------------|---6-(6)---------------6---------|
G|--2-------------------------2------|-5-------------------------------|
D|-----------------------------------|---------------------------------|
A|-----------------------------------|---------------------------------|
D|-----------------------------------|---------------------------------|
|
 |                                     <
E|-(5)-------------------------------|-8-------------------------------|
B|-----------------------------------|---------------------------------|
G|-----------------------------------|---------------------------------|
D|-----------------------------------|---------------------------------|
A|-----------------------------------|---------------------------------|
D|-----------------------------------|---------------------------------|


   Em7/C                               G7sus4/Bb
E|--3--3-(3)-3---3-(3)-3-3-3--3--(3)-|-1-1--1--1-1-(1)-1-1-1-1-1--1--(1)-|
B|--3--3-(3)-3---3-(3)-3-3-3--3--(3)-|-1-1--1--1-1-(1)-1-1-1-1-1--1--(1)-|
G|--0--0-(0)-0---0-(0)-0-0-0--0---0--|-0-0--0--0-0-(0)-0-0-0-0-0--0---0--|
D|--2--2-(2)-2---2-(2)-2-2-2-(2)--2--|-0-0--0--0-0-(0)-0-0-0-0-0-(0)--0--|
A|--3--3-(3)-3---3-(3)-3-3-3-(3)--3--|-1-1--1--1-1-(1)-1-1-1-1-1-(1)--1--|
D|-----------------------------------|-----------------------------------|
|
E|-------------3---(3)---------------|-----------1-(1)-------------------|
B|-(1)---------3---(3)---------------|---3-(3)---------------------------|
G|-------------0---(0)---------------|-3---------------------------------|
D|-------------2---(2)---------------|-----------------------------------|
A|-----------------------------------|-----------------------------------|
D|-----------------------------------|-----------------------------------|
|
 |  <                                  <
E|--3-------------------------5------|-----------------------------------|
B|-----------------------------------|-6---------------------------------|
G|-----------------------------------|-----------------------------------|
D|-----------------------------------|-----------------------------------|
A|-----------------------------------|-----------------------------------|
D|-----------------------------------|-----------------------------------|


   Asus4                           Dm9
E|-0-0-(0)-0-0-(0)-0-0-0--0--(0)-|-0-0--0--0-0-(0)0-0--0---0--0--x-x-|
B|-3-3-(3)-3-3-(3)-3-3-3--3--(3)-|-6-6--6--6-6-(6)6-6--6---6--6--x-x-|
G|-2-2-(2)-2-2-(2)-2-2-2--2---2--|-5-5--5--5-5-(5)5-5--5---5-(5)-x-x-|
D|-0-0-(0)-0-0-(0)-0-0-0-(0)--0--|-0-0--0--0-0-(0)0-0--0---0-(0)-x-x-|
A|-0-0-(0)-0-0-(0)-0-0-0-(0)--0--|-----------------------------------|
D|-------------------------------|-----------------------------------|
|
E|-0-----------------------------|---8-(8)------8p5--------5---------|
B|-3-----------------------------|-----------6--------(6)--------6S==|
G|-2-----------------------------|-5---------------------------------|
D|-0-----------------------------|-----------------------------------|
A|-------------------------------|-----------------------------------|
D|-------------------------------|-----------------------------------|
|
 | <                               <
E|-5-----------------------------|-8----------------------10---------|
B|-------------------------------|-----------------------------------|
G|-------------------------------|-----------------------------------|
D|-------------------------------|-----------------------------------|
A|-------------------------------|-----------------------------------|
D|-------------------------------|-----------------------------------|


   Em7/C                                G7sus4/Bb
E|-3-3-(3)-3---3-(3)-3-3----3--3--(3)-|-1-1--1--1-1---(1)-1-1-1-1-1--1--(1)--|
B|-3-3-(3)-3---3-(3)-3-3----3--3--(3)-|-1-1--1--1-1---(1)-1-1-1-1-1--1--(1)--|
G|-0-0-(0)-0---0-(0)-0-0----0--0---0--|-0-0--0--0-0---(0)-0-0-0-0-0--0---0---|
D|-2-2-(2)-2---2-(2)-2-2----2-(2)--2--|-0-0--0--0-0---(0)-0-0-0-0-0-(0)--0---|
A|-3-3-(3)-3---3-(3)-3-3----3-(3)--3--|-1-1--1--1-1---(1)-1-1-1-1-1-(1)--1---|
D|------------------------------------|--------------------------------------|
|
E|---8-(8)--------8h10---10p8--8------|---6-(6)-----8-(8)---6p5-6p5----------|
B|-8---------8------------------------|-6------------------------------------|
G|------------------------------------|--------------------------------------|
D|------------------------------------|--------------------------------------|
A|------------------------------------|--------------------------------------|
D|------------------------------------|--------------------------------------|
|
 | <                                    <
E|-3---------------------------5------|-6-----------------------5------------|
B|------------------------------------|--------------------------------------|
G|------------------------------------|--------------------------------------|
D|------------------------------------|--------------------------------------|
A|------------------------------------|--------------------------------------|
D|------------------------------------|--------------------------------------|


   Asus4
E|--0---0--(0)-0-----0--(0)--0--0--0--0--(0)-|
B|--3---3--(3)-3-----3--(3)--3--3--3--3--(3)-|
G|--2---2--(2)-2-----2--(2)--2--2--2--2---2--|
D|--0---0--(0)-0-----0--(0)--0--0--0-(0)--0--|
A|--0---0--(0)-0-----0--(0)--0--0--0-(0)--0--|
D|-------------------------------------------|
|
E|-----10-(10)---10h12-(12)-12p10-10---------|
B|-------------------------------------------|
G|-------------------------------------------|
D|--0----------------------------------------|
A|-------------------------------------------|
D|-------------------------------------------|
|
E|-(5)---------------------------------------|
B|-------------------------------------------|
G|-------------------------------------------|
D|-------------------------------------------|
A|-------------------------------------------|
D|-------------------------------------------|


   Dm9
E|-0--0---0---0--0----(0)--0--0--0--0--0--x-x-|
B|-6--6---6---6--6----(6)--6--6--6--6--6--x-x-|
G|-5--5---5---5--5----(5)--5--5--5--5-(5)-x-x-|
D|-0--0---0---0--0----(0)--0--0--0--0-(0)-x-x-|
A|--------------------------------------------|
D|--------------------------------------------|
|
E|---13-(13)----13h15-----15p13----13---------|
B|-----------13-------13--------13------------|
G|--------------------------------------------|
D|-0------------------------------------------|
A|--------------------------------------------|
D|--------------------------------------------|
|
 | <
E|-8-------------------------------10---------|
B|--------------------------------------------|
G|--------------------------------------------|
D|--------------------------------------------|
A|--------------------------------------------|
D|--------------------------------------------|


   Em7/C
E|-3-3-(3)-3----3-(3)--3-3---3--3--(3)-|
B|-3-3-(3)-3----3-(3)--3-3---3--3--(3)-|
G|-0-0-(0)-0----0-(0)--0-0---0--0---0--|
D|-2-2-(2)-2----2-(2)--2-2---2-(2)--2--|
A|-3-3-(3)-3----3-(3)--3-3---3-(3)--3--|
D|-------------------------------------|
|
E|---8-(8)---8h10-----10p8---8---------|
B|---------8-------8-------8----8------|
G|-------------------------------------|
D|-0-----------------------------------|
A|-------------------------------------|
D|-------------------------------------|
|
 | <
E|-3----------------------------5------|
B|-------------------------------------|
G|-------------------------------------|
D|-------------------------------------|
A|-------------------------------------|
D|-------------------------------------|


   G7sus4/Bb
E|-1------------1---1--1--1--(1)--1-1-1--1-1--1--(1)-|
B|-1------------1---1--1--1--(1)--1-1-1--1-1--1--(1)-|
G|-0------------0---0--0--0--(0)--0-0-0--0-0--0---0--|
D|-0------------0---0--0--0--(0)--0-0-0--0-0-(0)--0--|
A|-1------------1---1--1--1--(1)--1-1-1--1-1-(1)--1--|
D|---------------------------------------------------|
|
E|-----13-(13)-12-(12)-------------------------------|
B|---x-------------------13-(13)---------------------|
G|-x-----------------------------12------------------|
D|--------------------------------------12-----------|
A|-------------------------------------------13------|
D|---------------------------------------------------|
|
 | <
E|---------------------------------------------------|
B|-6-------------------------------------------------|
G|---------------------------------------------------|
D|---------------------------------------------------|
A|---------------------------------------------------|
D|---------------------------------------------------|


   N.C.
   Gtr IV
    >
E|-----------|-------------|-----*|
B|-----------|-------------|-----*|
G|-----------|-------------|-----*|
D|-----------|-------------|-----*|
A|-12--------|-(12)--------|-----*|
D|-----------|-------------|-----*|
|
 | Gtr II
 |  >
E|-----------|-------------|-----*|
B|--3--------|--(3)--------|-----*|
G|-----------|-------------|-----*|
D|-----------|-------------|-----*|
A|-----------|-------------|-----*|
D|-----------|-------------|-----*|
 


************************************

| x    Dead note
| (n)  Ghost note
| h    Hammer-on
| p    Pull-off
| r    Release
| b    Bend
| /    Slide up
| \    Slide down 

************************************
Suggest correction
Give kudos to tab author, rate the tab!
1 2 3 4 5
comments
print report bad tab
guest
You may want to rate the tab now too:
select rating
Please do not post tabs as comments. Select "correction" instead!