Oops, an error
Loading. Please wait.

Time Flies tab

version 4
version 4

Whole song

Interactive

853 views 3 this week
no commentswrite comment
1 2 3 4 5
3 more votes to show rating
add to favorites
×
Save as Personal and add changes to this tab that will be seen only by you. Learn more ›
×
You can save this tab as Personal to edit and correct it or add notes. All changes will be seen only by you. Learn more »
launch autoscroll
font size
0
reset
how to read this tab
guitar tuner
edit
Autoscroll
slow
fast
+/-
esc
set tempo
stop
Tab for the parts that Steven Wilson plays with the acoustic guitar on the song Time Flies by Porcupine Tree 
in the studio and live version.


Capo 5th fret. Strum hard for the tone.

______________________________________________________________________________________________________________
_________________________________________________A Section____________________________________________________

Intro and Verses (x4):

E|-0-0-0-0-----------------0-0-0-0----0-0-0-0----0-0-0-0----0-0-0-0-0-0-|| ------------------
B|-3-3-3-3-----------------0-0-0-0----0-0-0-0----3-3-3-3----0-0-0-0-0-0-||                  |
G|-0-0-0-0------(x4)-------0-0-0-0----0-0-0-0----0-0-0-0----0-0-0-0-0-0-||                  |
D|-2-2-2-2-----------------2-2-2-2----2-2-2-2----2-2-2-2----2-2-2-2-2-2-||                  |
A|----------------------------------------------------------------------||                  |
E|----------------------------------------------------------------------||                  | 
                                                                                            |
                                                                                            |
                                                                                    Notice the extra strums.
E|---------------------------------------||                                           |
B|-5-5-5-5-------------------5-5-5-5-5-5-||                                           |
G|-5-5-5-5-------------------5-5-5-5-5-5-||                                           |
D|-3-3-3-3-----(x7)----------3-3-3-3-3-3-||--------------------------------------------
A|-3-3-3-3-------------------3-3-3-3-3-3-||
E|---------------------------------------||


--------------------------------------
--------------------------------------

Variation on the Octane Twisted live album:

E|-0-0-0-0-----------------0-0-0-0----0-0-0-0----0-0-0-0----0-0-0-0-0-0-||
B|-3-3-3-3-----------------0-0-0-0----0-0-0-0----3-3-3-3----0-0-0-0-0-0-||
G|-0-0-0-0------(x4)-------0-0-0-0----0-0-0-0----0-0-0-0----0-0-0-0-0-0-||
D|-2-2-2-2-----------------2-2-2-2----2-2-2-2----2-2-2-2----2-2-2-2-2-2-||
A|----------------------------------------------------------------------||
E|----------------------------------------------------------------------||


E|------------------------------------------------------------------------------------------||
B|-5-5-5-5----5-5-5-5----5-5-5-5----5-5-5-5----6-6-6-6----6-6-6-6----5-5-5-5----5-5-5-5-5-5-||
G|-5-5-5-5----5-5-5-5----5-5-5-5----5-5-5-5----5-5-5-5----5-5-5-5----5-5-5-5----5-5-5-5-5-5-||
D|-3-3-3-3----3-3-3-3----3-3-3-3----3-3-3-3----3-3-3-3----3-3-3-3----3-3-3-3----3-3-3-3-3-3-||
A|-3-3-3-3----3-3-3-3----3-3-3-3----3-3-3-3----3-3-3-3----3-3-3-3----3-3-3-3----3-3-3-3-3-3-||
E|------------------------------------------------------------------------------------------||


---------------------------------------
---------------------------------------

"But after a while..":

E|-0-0-0-0-----------------0-0-0-0----------||
B|-0-0-0-0-----------------0-0-0-0----------||
G|-0-0-0-0-----------------4-4-4-4----------||  (x2)
D|-4-4-4-4-------(x8)------5-5-5-5----(x8)--||
A|-5-5-5-5-----------------3-3-3-3----------||
E|-3-3-3-3----------------------------------||

______________________________________________________________________________________________________________
______________________________________________B Section_______________________________________________________

Bridge before the second verse:

E|-----------------||
B|---------0-------||
G|-----0-------0---||    (x4)
D|---4---4---4---4-||
A|-----------------||
E|-0---------------||


----------------------------------------------
----------------------------------------------

On the Octane Twisted live album:

E|---------------------------------||
B|---------0---------------0-------||
G|-----0-------0-------0-------0---||    (x2)
D|---4---4---4---4---4---4---4---4-||
A|-----------------2---------------||
E|-0-------------------------------||


-----------------------------------------------
-----------------------------------------------

______________________________________________________________________________________________________________
________________________________________________C Section_____________________________________________________

After the second verse:

        D       F     Em      G
E|------10------1------0------3----||
B|------10------1------0------3----||
G|------11------2------0------4----||    (x3)
D|------12------3------2------5----||
A|------12------3------2------5----||
E|------10------1------0------3----||

______________________________________________________________________________________________________________
_______________________________________________D Section______________________________________________________


Long Brigde and solo:

Same notes as the last bridge, but the timing is different:

E|--------------------------------------------------------------------------------------------||
B|---------0----------------------------0--------------------------0---------------3----------||
G|-----0-------0--------------------0-------0------------------0-------0-------0-------0------||    (x2)
D|---4---4---4---4----(x8)--------2---2---2---2----(x2)------2---2---2---2---2---2---2---2----||
A|------------------------------4--------------------------3---------------3------------------||
E|-0------------------------------------------------------------------------------------------||



E|------------------------------------------------------------------------------------------------------------
B|---------0----------------------0-----------------------0---------------3------------------0----------------
G|-----0-------0--------------0-------0---------------0-------0-------0-------0----------0-------0------------
D|---4---4---4---4-(x8)-----2---2---2---2---(x2)----2---2---2---2---2---2---2---2------4---4---4---4--(x2)----
A|------------------------4-----------------------3---------------3------------------6------------------------
E|-0----------------------------------------------------------------------------------------------------------

----------------------------||
---------4------------------||
-----0-------0--------------||    (x4)
---2---2---2---2-----(x2)---||
-3--------------------------||
----------------------------||



--------------------------------------
--------------------------------------

On the Octane Twisted live album:

E|------------------------------------------------------------------------------------------------||
B|---------0---------------0--------------------------0---------------------------0-------3-------||
G|-----0-------0-------0-------0------------------0-------0-------------------0-------0-------0---||   (x2)
D|---4---4---4---4---4---4---4---4----(x4)------2---2---2---2---(x2)--------2---2---2---2---2---2-||
A|-----------------2--------------------------4---------------------------3-----------------------||
E|-0----------------------------------------------------------------------------------------------||



E|------------------------------------------------------------------------------------------------
B|---------0---------------0--------------------------0---------------------------0-------3-------
G|-----0-------0-------0-------0------------------0-------0-------------------0-------0-------0---
D|---4---4---4---4---4---4---4---4----(x4)------2---2---2---2---(x2)--------2---2---2---2---2---2-
A|-----------------2--------------------------4---------------------------3-----------------------
E|-0----------------------------------------------------------------------------------------------

-----------------------------------------------------------||
---------0--------------------------4----------------------||
-----0-------0------------------0-------0------------------||  (x2)
---4---4---4---4----(x2)------2---2---2---2----(x2)--------||
-6--------------------------3------------------------------||
-----------------------------------------------------------||



______________________________________________________________________________________________________________
______________________________________________________________________________________________________________

Song order: After this sections, the song is followed by the sudden repetition of the B Section with it's 
respectives variations and the C section till fadeaway.

______________________________________________________________________________________________________________
______________________________________________________________________________________________________________



.

            
            
Suggest correction
Creating personal tab
Creating personal tab
You can edit any tab online and save it as your Personal.

You can edit, replace or remove any tab part or add personal notes – all changes will be seen only by you.

Personal tabs can be accessed anytime from any device, even offline.
Learn more »
Give kudos to tab author, rate the tab!
1 2 3 4 5
comments
print report bad tab
guest
You may want to rate the tab now too:
select rating
Wanna post a correction for this tab? Suggest correction