Oops, an error
Loading. Please wait.

Trains bass

version 1
version 1

Whole song

Interactive

6,681 views 3 this week
no commentswrite comment
1 2 3 4 5
3 more votes to show rating
add to favorites
×
Save as Personal and add changes to this tab that will be seen only by you. Learn more ›
×
You can save this tab as Personal to edit and correct it or add notes. All changes will be seen only by you. Learn more »
launch autoscroll
font size
0
reset
guitar tuner
backing track
0:00
0:00
edit
Autoscroll
slow
fast
+/-
esc
set tempo
stop
Author
Difficulty
                                    Trains                                      


                                                               
I'm pretty sure this is the only Trains Bass tab



                                                                                
G||----------|------------------|------------------|------------------||-------|
D||----------|------------------|------------------|------------------||*------|
A||----------|------------------|------------------|------------------||-------|
E||----------|------------------|------------------|------------------||*------|
B||----------|------------------|------------------|------------------||-------|


       4x                                                                      
-------||------|------|------|------|------|------|------|------|------|------|
------*||------|------|------|------|------|------|------|------|------|------|
-------||------|------|------|------|------|------|------|------|------|------|
------*||------|------|------|------|------|------|------|------|------|------|
-------||------|------|------|------|------|------|------|------|------|------|


                                                     
------|------|------|------|------------------------|
------|------|------|------|------------------------|
------|------|------|------|------------------------|
------|------|------|------|-----------1-3-1-3-1-1--|
------|------|------|------|------------------------|


                                                         
---------------------------|----------------------------|
---------------------------|----------------------------|
---------------------------|----------------------------|
---1-1--1-----1-3-1-3-1-5--|---5-5--5---5/-1-3-1-3-1-1--|
---------------------------|----------------------------|


                                                         
---------------------------|----------------------------|
---------------------------|----------------------------|
---------------------------|----------------------------|
---1-1--1-----1-3-1-3-1-5--|---5-5--5---5/-1-3-1-3-1-1--|
---------------------------|----------------------------|


                                                         
---------------------------|----------------------------|
---------------------------|----------------------------|
---------------------------|----------------------------|
---1-1--1-----1-3-1-3-1-5--|---5-5--5---5/-1-3-1-3-1-1--|
---------------------------|----------------------------|


                                                          
-----------------------------|---------------------------|
--------3--------------------|---------------------------|
-----------------------------|---------------------------|
---1-1----1-1---1-3-1-3-1-5--|---5-5--5-----1-3-1-3-1-1--|
-----------------------------|---------------------------|


                                                         
---------------------------|----------------------------|
---------------------------|----------------------------|
---------------------------|----------------------------|
---1-1--1-----1-3-1-3-1-5--|---5-5--5---5/-1-3-1-3-1-1--|
---------------------------|----------------------------|


                                                                          
---------------------------|--------------|--------------|---------------|
---------------------------|--------------|--------3---3-|---------------|
---------------------------|--------------|--------------|--5--5--5--3h5-|
---1-1--1-----1-3-1-3-1-5--|---5-5--5--5/-|--1---1-------|---------------|
---------------------------|--------------|--------------|---------------|


                                                   
---------------|----------------|-----------------|
--3---3--------|----------------|-----------------|
--------5-3----|------------3---|-----------------|
------------5--|---5-5--3h5---5-|--5/1-3-1-3-1-1--|
---------------|----------------|-----------------|


                                                                       
-----------------------------|---------------|------------------------|
-----------------------------|---------------|------------------------|
-----------------------------|------------3--|--5----5---5---5--5--7--|
---1-1--1--1-1--1-3-1-3-1-5--|---5-5--5-5----|------------------------|
-----------------------------|---------------|------------------------|


                                                                            
-------------------------|------------------------|------------------------|
----------------7h8------|------------------------|------------------------|
--8----8---8--8-------8/-|--------------5---5-----|---------------------3--|
-------------------------|--3----3---3---------3/-|--1---1---1----1---1----|
-------------------------|------------------------|------------------------|


                                                     
-------------------------|--------------------------|
-------------------------|--------------------------|
--5----5---5----5--5--7--|--8----8---8----7h-8------|
--------------5----------|--------------8-------8-5/|
-------------------------|--------------------------|


                                                                        
---------------------------|-------------------------|-----------------|
---------------------------|-------------------------|-----------------|
---------------------------|---------------------3---|-----------------|
--3----3---3--5---------3/-|--1---1---1----1---1---1-|--1-1-3-1-3-1-1--|
----------------10--10-----|-------------------------|-----------------|


                                                           
-----------------------------|----------------------------|
-----------------------------|----------------------------|
-----------------------------|----------------------------|
---1-1--1--1-1--1-3-1-3-1-5--|---5-5--5--5/--1-3-1-3-1-1--|
-----------------------------|----------------------------|


                                                             
-------------------------------|----------------------------|
-------------------------------|----------------------------|
------------3------------------|----------------------------|
---1-1--1-1---1-1-1-3-1-3-1-5--|---5-5--5--5/--1-3-1-3-1-1--|
-------------------------------|----------------------------|


                                                               
-------------------------------|------------------------------|
-------------------------------|------------------------------|
------------3------------------|--------7-7-------------------|
---1-1--1-1---1-1-1-3-1-3-1-5--|---5-5------8--3-1-3-1-3-1-1--|
-------------------------------|------------------------------|


                                                                        
-------------------------------|--------------|------------------------|
-------------------------------|--------------|------------------------|
------------3------------------|-----------3--|--5----5---5---5--5--7--|
---1-1--1-1---1-1-1-3-1-3-1-5--|---5-5--5-----|------------------------|
-------------------------------|--------------|------------------------|


                                                                            
-------------------------|-----------------------|-------------------------|
-------------------------|-----------------------|-------------------------|
--8----8---8----7h-8-----|-------------5---5-----|---------------------3---|
--------------8-------8/-|--3----3------------3--|--1---1---1----1---1---1-|
-------------------------|-----------------------|-------------------------|


                                                                             
-------------------------|-------------------------|------------------------|
-------------------------|-------------------------|------------------------|
--5----5---5----5--5--7--|--8----8---8----7h8------|--------------5---5-----|
--------------5----------|--------------8-------8/-|--3----3---3---------3--|
-------------------------|-------------------------|------------------------|


                                                                           
--------------------------|-----------------|-----------------------------|
--------------------------|-----------------|-----------------------------|
----------------------3---|-----------------|-----------------------------|
--1---1---1----1--1-1---1-|--1-1-3-1-3-1-1--|---1-1--1--1-1--1-3-1-3-1-5--|
--------------------------|-----------------|-----------------------------|


                                                                              
----------------------------|-------------------------------|----------------|
----------------------------|-------------------------------|----------------|
----------------------------|------------3------------------|------------3h5-|
---5-5--5---5/-1-3-1-3-1-1--|---1-1--1-1---1-1-1-3-1-3-1-5--|--5-5-5--5------|
----------------------------|-------------------------------|----------------|


                                                                                
------------|---------------|---------------|----------------|-----------------|
--3----3----|---------------|--3---3--------|----------------|-----------------|
------------|--5--5--5--3-5-|--------5-3----|------------3---|-----------------|
------------|---------------|------------5--|---5-5--3h5---5-|--5/1-3-1-3-1-1--|
------------|---------------|---------------|----------------|-----------------|


                                                                           
-------------------------------|----------||-------|------|------|-------||
-------------------------------|----------||*------|------|------|------*||
------------3------------------|----------||-------|------|------|-------||
---1-1--1-1---1-1-1-3-1-3-1-5--|----------||*------|------|------|------*||
-------------------------------|----------||-------|------|------|-------||


                                                                             
------|------|------|------|------|------|------|------|------|------|------|
------|------|------|------|------|------|------|------|------|------|------|
------|------|------|------|------|------|------|------|------|------|------|
------|------|------|------|------|------|------|------|------|------|------|
------|------|------|------|------|------|------|------|------|------|------|


                                                                               
------|------|------|------|------|------|------|------|------||-------|------|
------|------|------|------|------|------|------|------|------||*------|------|
------|------|------|------|------|------|------|------|------||-------|------|
------|------|------|------|------|------|------|------|------||*------|------|
------|------|------|------|------|------|------|------|------||-------|------|


                                                                     
------|-------||------|------|------|------|------------------------|
------|------*||------|------|------|------|------------------------|
------|-------||------|------|------|------|------------------------|
------|------*||------|------|------|------|-----------1-3-1-3-1-5--|
------|-------||------|------|------|------|------------------------|


                                                             8x
|-----------------------------|------------------------------||
|*----------------------------|-----------------------------*||
|-----------------------------|------------------------------||
|*---5-5--5---5/-1-3-1-3-1-1--|---1-1--1--1-1--1-3-1-3-1-5--*||
|-----------------------------|------------------------------||


                                                           
----------------------------|-----------------------------|
----------------------------|-----------------------------|
----------------------------|-----------------------------|
---5-5--5---5/-1-3-1-3-1-1--|---1-1--1--1-1--1-3-1-3-1-5--|
----------------------------|-----------------------------|


                                                                            
------------------------------|----------------------------|---------------|
------------------------------|----------------------------|---------------|
--------7-7-------------------|-------------3--------------|---------------|
---5-5------8-5--1-3-1-3-1-1--|--1-1--1-1-1---1--1-3-1-3-1-|--5------------|
------------------------------|----------------------------|---------------|


                                      
--------------|--------------|------||
--------------|--------------|------||
--------------|--------------|------||
--------------|--------------|------||
--------------|--------------|------||



            
            
Suggest correction
Creating personal tab
Creating personal tab
You can edit any tab online and save it as your Personal.

You can edit, replace or remove any tab part or add personal notes – all changes will be seen only by you.

Personal tabs can be accessed anytime from any device, even offline.
Learn more »
Give kudos to tab author, rate the tab!
1 2 3 4 5
comments
print report bad tab
guest
You may want to rate the tab now too:
select rating
Wanna post a correction for this tab? Suggest correction