Oops, an error
Loading. Please wait.

Trains solo tab

version 1
version 1

Solo

  • The timing is more accurate than the other tab I've seen.

Whole song

Interactive

32,761 views 48 this week
5 commentsread comments
1 2 3 4 5
x 13
add to favorites
×
Save as Personal and add changes to this tab that will be seen only by you. Learn more ›
×
You can save this tab as Personal to edit and correct it or add notes. All changes will be seen only by you. Learn more »
launch autoscroll
font size
0
reset
how to read this tab
guitar tuner
backing track
0:00
0:00
edit
Autoscroll
slow
fast
+/-
esc
set tempo
stop
Author
Right well...err..hello..efe here.. I noticed that the solo provided for this song was 
done by a f**kwit and it enraged me so much i decided to do it myself.

Step 1..contrary to what the retard told you on the other tab DO NOT use capo for the solo..

Step 2.. It is an acoustic solo so dont use an electric..unless youre poor and cant 
both the you may do what the hell you like.

Step 3.. This is music tablature not proper notation so i suggest you listen to the solo 
carefully alongside trying to learn from this tab as some of the timing and notes you 
are not provided..so dont come crying to me cos i know this is 100% correct as long as
i havent made any silly errors.

e----------------------------------------------------------------------------|
B----------------------------------------------------------------------------|
G--------------------------5h7-7-5---4(vibrato)------------------------------|
D--------------5/7-7-7-7-7----------------5---5-7-5--------------------------|
A--------3/5/7------------------------------7-------5--------3/5-5-5/7-5---5-|
E3/5 0h3----------------------------------------------8--5-5-------------8---|

                                           Listen for timing here

e---------------------------------------------7-10-8-7---------8----7---8----|
B-------------------------------------------8----------8-10-10---10---8---10-|
G---------5-7-7(1/4 bend)-5-7-9-9-9-9-9---9----------------------------------|
D-----5h7--------------------------------------------------------------------|
A-5/7------------------------------------------------------------------------|
E----------------------------------------------------------------------------|

..continued

e-7---------8----7----------------------------------------------------------|
B---8-10-10---10---8--------------------------------------------------------|
G-------------------9---9-5-7-4-4-5--4-----4-5-7-4-5-4---4------------------|
D---------------------------------------7-7-------------7---5-7-7-7b 7b 7b--|
A---------------------------------------------------------------------------|
E---------------------------------------------------------------------------|

fin.

            
            
Suggest correction
Creating personal tab
Creating personal tab
You can edit any tab online and save it as your Personal.

You can edit, replace or remove any tab part or add personal notes – all changes will be seen only by you.

Personal tabs can be accessed anytime from any device, even offline.
Learn more »
comments
print report bad tab
5 comments total. Showing first comments.
0 reply
guitarwomen 136 Nov 04, 2007 11:45 AM

Weel damn!
you don't have to be mean man!

0 reply
DJKiwi 23 Mar 28, 2008 01:31 AM

Can you make the solo tab for Trains from We Lost The Skyline?

+1 reply
Shoj_ 80 Jul 15, 2010 12:43 PM

"was done by a f**kwit and it enraged me so much i decided to do it myself"

RARR RAEG

But seriously, take a chill pill. Parts of this solo are so quiet in the mix that it's hard to make it out, that it's pretty understandable if someone has one or two notes off. What makes you so sure yours is 100% correct? I transcribed it myself (I'm not perfect, but still), slowing the song itself down (retaining pitch) and yours doesn't seem to go "100%" with it.

What other solo? The only one here that is tabbed out (not guitar pro/power tab) is in ver4, which looks like it was copied out of an official tab book, and looks pretty similar to yours. Is the other solo removed?

Peace.

guest
You may want to rate the tab now too:
select rating
Wanna post a correction for this tab? Suggest correction