Oops, an error
Loading. Please wait.

Voyage 34 Phase I solo tab

version 1
version 1

Solo

Whole song

10,885 views 3 this week
1 commentread comment
1 2 3 4 5
x 4
add to favorites
×
Save as Personal and add changes to this tab that will be seen only by you. Learn more ›
×
You can save this tab as Personal to edit and correct it or add notes. All changes will be seen only by you. Learn more »
launch autoscroll
font size
0
reset
how to read this tab
guitar tuner
edit
Autoscroll
slow
fast
+/-
esc
set tempo
stop
Voyage 34 (Phase I) [Solo]
by Porcupine Tree from Voyage 34: The Complete Trip
Tab by Danny Mendoza

Lead Gtr (E A D G B e)

Legend:
h = hammer on           s = slide
p = pull off            ~ = vibrato
b = bend up             < = Volume swell in
r = retract to          PM = Palm mute

[Solo]
e:------------------------------------------------10-10h12-10-10------|
B:----8p7-8p7-8p7-8p7--------7-8-10---8-10h12-------------------------|
G:---------------------9-9~-------------------------------------------|
D:--------------------------------------------------------------------|
A:--------------------------------------------------------------------|
E:--------------------------------------------------------------------|

e:----12b14r12s10----12--14-14b15r14--12--12---14-14b15r14--12--12----|
B:--------------------------------------------------------------------|
G:--------------------------------------------------------------------|
D:--------------------------------------------------------------------|
A:--------------------------------------------------------------------|
E:--------------------------------------------------------------------|

e:--12h14--12--10~~----17-14------------------------------------------|
B:---------------------------15s10-10-10--12-12b13r12--10--12b13r12---|
G:--------------------------------------------------------------------|
D:--------------------------------------------------------------------|
A:--------------------------------------------------------------------|
E:--------------------------------------------------------------------|

e:---------------------------------17-15-14--------------14---|
B:---10-10h12----10-------------15----------15----15-17-------|
G:------------------12-11~~--14-----------------14------------|
D:------------------------------------------------------------|
A:------------------------------------------------------------|
E:------------------------------------------------------------|

e:---14h15p14-12--14-15--17-17-15-14------|
B:----------------------------------------|        Here it gets a
G:----------------------------------------|         little faster.
D:----------------------------------------|        
A:----------------------------------------|
E:----------------------------------------|

(Tab expanded for clarity)
e:----15--17--14--15------14------------------------------------------|
B:--------------------17------15--17--14--15------14------------------|
G:--------------------------------------------16------14--16------14--|
D:------------------------------------------------------------17------|
A:--------------------------------------------------------------------|
E:--------------------------------------------------------------------|

                                (Tab resume normal width)
e:---------------------------------------------------------------|
B:---------------------------------------------------------------|
G:-------------------------------------12---------12-12-12h14----|
D:---16--17--14--16--12~~~~------12h14------12h14----------------|
A:---------------------------------------------------------------|
E:---------------------------------------------------------------|

e:--------------------------------------------------------------------|
B:--------------------------------------------------------------------|
G:----------12--14-14-14-14p12-----12---------------------------------|
D:----12h14---------------------14----14~~---14-12--------------------|
A:-------------------------------------------------14-13-12-10--------|
E:--------------------------------------------------------------12~---|

e:-----------------------------------------------------------------|
B:-----------------------------------------------------------------|
G:--------------------------------------------12----12-14-12-14----|
D:--------------------------12----12-14-12-14----14----------------|
A:-----10-12-10-12-14-12-14----14----------------------------------|
E:--12-------------------------------------------------------------|

e:---------------------12---12-15-12-15b17~~~~~----|
B:---12----12-15-12-15---15------------------------|
G:------14-----------------------------------------|    
D:-------------------------------------------------|    
A:-------------------------------------------------|
E:-------------------------------------------------|

e:------------------------------------|----------------------------------|
B:----14--12---14--12---14b15r14p12---|----------------------------------|
G:o---14--12---14--12---14b15r14p12--o|-14--12-12--9-9~~---11s12-12-11~~-|
D:o----------------------------------o|----------------------------------|
A:------------------------------------|----------------------------------|
E:------------------------------------|----------------------------------|

Fin.

Questions & comments: dystudios@mac.com

            
            
Suggest correction
Creating personal tab
Creating personal tab
You can edit any tab online and save it as your Personal.

You can edit, replace or remove any tab part or add personal notes – all changes will be seen only by you.

Personal tabs can be accessed anytime from any device, even offline.
Learn more »
comments
print report bad tab
1 comment total.
0 reply
Mobanez 10 Jan 11, 2008 08:42 AM

Great Tab, fits perfect!

Can you tab the Solo of Phase II or Waiting Phase I, too?
I Would be very thankful!

guest
Wanna post a correction for this tab? Suggest correction