Oops, an error
Loading. Please wait.

Melissa Bass Tab

version 1
version 1

Whole song

Interactive

8,470 views 6 this week
no commentswrite comment
1 2 3 4 5
x 4
add to favorites
launch autoscroll
font size
0
reset
guitar tuner
Autoscroll
slow
fast
+/-
esc
set tempo
stop
Help us to improve Ultimate-Guitar.com Take our survey!
×
Author
Melissa
Porno Graffiti
Full Metal Alchemist OP


Intro:

G|-----------0--0-2-2200--------|
D|-------0-2---2--------20------|
A|--0-003-----------------30----|
E|------------------------------|


Chorus:

G|---------7-7554422--------5-5442200--|
D|-------------------------------------|
A|--0-02-4--------------0-2------------|
E|-------------------3-3---------------|

G|--------4-42200-------1-2-2445599----| the 99 here could be 22 on D string
D|---------------332-24---------(22)---| if it's too far for you, but it's 
A|------0------------------------------| the way the original is played so 
E|-1-13--------------------------------| that's what I put here.

G|--------7-7554422-----------------------------------|
D|----------------------------------------------------|
A|-0-02-4--------------0-2-3-33322220000--------------|
E|------------------3-3-----------------333322222222--|

G|----------------------|
D|--000000-0222220------|
A|--------3-------3-----|
E|-----------------3----|


Instrumental before the Verse: (4x)

G|--2-2--0-2----0-4---|
D|-----2-----2-2------|
A|--------------------|
E|--------------------|


Verse:

G|-----------------------------------------------------------------|
D|-------------------------00000000222222222---20---------------2--|
A|-00000000---------------------------------024--420000000000000---|
E|---------4444444422222222----------------------------------------|

G|-2222222211111111------------------------------------------------|
D|-----------------4444444400000000222222222---20------------------|
A|------------------------------------------024--42000000000--3----|
E|-----------------------------------------------------------------|

G|--------1---------------------------------------------------------|
D|-----2---------------1------------------2----5--8-6---------------|
A|--4----------1--4-2-----2-------2-1--4----6----------6--3-----2-2-|
E|----------2---------------0--4----------------------------4-4-----|

G|-------0--------------------------------------------------|
D|----1------1--1-0-0----------------------------0-0-0-/10--|
A|-3-------------------------------------3-3-3-3------------|
E|--------1----------2-2-3-3-1-1-0-0-0-0--------------------|


Repeat Chorus 
Then Instrumental and verse
Chorus then Intro
Then the 1st half of the Chorus 2x
Then chorus
It ends on the instrumental before verse and fades out


Hope you like it! Enjoy :)
Suggest correction
comments
print report bad tab
guest
You may want to rate the tab now too:
select rating
Wanna post a correction for this tab? Suggest correction