Oops, an error
Loading. Please wait.

Melissa solo tab

version 1
version 1

Solo

Interactive

13,533 views 12 this week
no commentswrite comment
1 2 3 4 5
1 last vote to show rating
add to favorites
×
Save as Personal and add changes to this tab that will be seen only by you. Learn more ›
×
You can save this tab as Personal to edit and correct it or add notes. All changes will be seen only by you. Learn more »
launch autoscroll
font size
0
reset
how to read this tab
guitar tuner
edit
Autoscroll
slow
fast
+/-
esc
set tempo
stop
Author
Difficulty
intermediate
this is the voice from Melissa - Porno Graffiti , By : Dmonk
ésta es la Voz de Melissa - Porno Graffiti , Por : Dmonk

Gtr I
  W          W          W          W
|----------|----------|----------|------|
|----------|----------|----------|------|
|----------|----------|----------|------|
|----------|----------|----------|------|
|----------|----------|----------|------|
|----------|----------|----------|------|


  Q  E E E E E E   +H     +H        Q   E E E  E E E   +H     +Q.   E
|-0--0-5---------|---------------|-------------------|-----------------|
|-2--2-5---5---6-|-(6)----(6)----|--------8--------5-|-(5)----(5)------|
|-2--2-6---6---7-|-(7)----(7)----|--7---7-7----7---5-|-(5)----(5)------|
|----------7-----|---------------|--9---9-9----9-----|-----------------|
|----------------|---------------|-10--10-----10-----|-----------------|
|----------------|---------------|-------------------|-----------------|


  Q  E E E E E E   +H     +Q   Q    H    Q  E E   +H     +Q.   E
|----------------|----------------|------0------|-----------------|
|------6-------3-|-(3)----(3)--1--|-0----0--0-1-|-(1)----(1)------|
|-5--5-5---5---4-|-(4)----(4)--2--|-1-------1-2-|-(2)----(2)------|
|-7--7-7---7---3-|-(3)----(3)-----|-------------|-----------------|
|-8--8-----8-----|----------------|-------------|-----------------|
|----------------|----------------|-------------|-----------------|


  Q  E E E E E E   +H     +H        Q   E E E  E E E   +Q   Q  Q  Q
|-0--0-5---------|---------------|-------------------|----------------|
|-2--2-5---5---6-|-(6)----(6)----|--------8--------6-|-(6)--5--3--5---|
|-2--2-6---6---7-|-(7)----(7)----|--7---7-7----7---5-|-(5)--5--4--5---|
|----------7-----|---------------|--9---9-9----9---5-|-(5)--5--5--5---|
|----------------|---------------|-10--10-----10-----|----------------|
|----------------|---------------|-------------------|----------------|


  H    H      W          +Q   Q  Q  E E   E E E E E E E E
|-----------|----------|----------------|------------------|
|------5----|----------|----------------|------------------|
|-5----4----|-2--------|-(2)-----2--4---|---5-5-5-5-5-5-5--|
|-7----5----|-4--------|-(4)------------|------------------|
|-7---------|-5--------|-(5)------------|------------------|
|-----------|----------|----------------|------------------|


  E E E E E E +E  E   +W           W          W
|---------3-3-(3)-5-|-(5)--------|----------|------|
|-3-3-3-3-----------|------------|----------|------|
|-------------------|------------|----------|------|
|-------------------|------------|----------|------|
|-------------------|------------|----------|------|
|-------------------|------------|----------|------|


  W          W          W          W
|----------|----------|----------|------|
|----------|----------|----------|------|
|----------|----------|----------|------|
|----------|----------|----------|------|
|----------|----------|----------|------|
|----------|----------|----------|------|


  W          Q  E E +E  E E E   E E E E E E +E  E   +Q   Q  E E E E
|----------|------------------|-------------------|------------------|
|----------|------------------|-----------2-(2)---|-------------2-3--|
|----------|-6--6-6-(6)-6-6-6-|-4-4-4-4-4-------2-|-(2)-------2------|
|----------|------------------|-------------------|------------------|
|----------|------------------|-------------------|------------------|
|----------|------------------|-------------------|------------------|


  +S  S E E E +E  E Q    H    +E  E Q    H    E E +E  E   H    +E  E Q
|----------------------|---------------|----------------|---------------|
|-(3)-------3-(3)-2----|-2----(2)-3-2--|--------2-(2)-2-|-3----(3)-2----|
|-------------------4--|---------------|-4----4---------|------------4--|
|----------------------|---------------|----------------|---------------|
|----------------------|---------------|----------------|---------------|
|----------------------|---------------|----------------|---------------|


  H    H      Q  E E +E  E E E   E E E E E E +E  E   +Q   Q  E E E E
|-----------|------------------|-------------------|------------------|
|-2---------|-2--2-2-(2)-2-2-2-|-----------2-(2)---|-------------2-3--|
|-----------|------------------|-4-4-4-4-4-------2-|-(2)-------2------|
|-----------|------------------|-------------------|------------------|
|-----------|------------------|-------------------|------------------|
|-----------|------------------|-------------------|------------------|


  +S  S E E E +E  E Q    H    +E  E Q    H    E E +E  E   H    +E  E Q
|----------------------|---------------|----------------|---------------|
|-(3)-------3-(3)-2----|-2----(2)-3-2--|--------2-(2)-2-|-3----(3)-5-3--|
|-------------------4--|---------------|-4----4---------|---------------|
|----------------------|---------------|----------------|---------------|
|----------------------|---------------|----------------|---------------|
|----------------------|---------------|----------------|---------------|


  Q  +S  S E H       H    +Q   +S  S E
|-----------------||-------------------|
|-2--(2)-----4----||-5----(5)--(5)---5-|
|-----------------||-------------------|
|-----------------||-------------------|
|-----------------||-------------------|
|-----------------||-------------------|


  Q  E E +E  E +E  E   +H     +Q   +S  S E
|--------------------|----------------------|
|-5--4-2-(2)-5-(5)-4-|-(4)----(4)--(4)------|
|--------------------|----------------------|
|--------------------|----------------------|
|--------------------|----------------------|
|--------------------|----------------------|


  Q  E E +E  E +E  E   +H     Q  Q    Q  Q  Q.   E   W
|--------------------|--------------|--------------|------||
|-4--2-------4-(4)-2-|-(2)----------|-------4----2-|-1----||
|------4-(4)---------|-----------4--|-3--3---------|------||
|--------------------|--------------|--------------|------||
|--------------------|--------------|--------------|------||
|--------------------|--------------|--------------|------||


  H    H      H    +Q.   E   Q  E E +E  E +E  E   +H     H
|-----------|--------------|--------------------|-------------|
|-1----3----|-4----(4)---4-|-4--3-1-(1)-4-(4)-3-|-(3)----1----|
|-----------|--------------|--------------------|-------------|
|-----------|--------------|--------------------|-------------|
|-----------|--------------|--------------------|-------------|
|-----------|--------------|--------------------|-------------|


  H    H      E E E E E E E E   E E E E Q  E E   E E +E  E Q  Q
|-----------|-----------------|----------------|------------------|
|------3----|---1-1---1-1-1---|---1-1---1--1-1-|---1-(1)-1-3--3---|
|-3---------|-------3-------3-|-------3--------|------------------|
|-----------|-----------------|----------------|------------------|
|-----------|-----------------|----------------|------------------|
|-----------|-----------------|----------------|------------------|


  Q  E E E E E E   +H     +H        Q   E E E  E E E   +H     +Q.   E
|-0--0-5---------|---------------|-------------------|-----------------|
|-2--2-5---5---6-|-(6)----(6)----|--------8--------5-|-(5)----(5)------|
|-2--2-6---6---7-|-(7)----(7)----|--7---7-7----7---5-|-(5)----(5)------|
|----------7-----|---------------|--9---9-9----9-----|-----------------|
|----------------|---------------|-10--10-----10-----|-----------------|
|----------------|---------------|-------------------|-----------------|


  Q  E E E E E E   +H     +Q   Q    H    Q  E E   +H     +Q.   E
|----------------|----------------|------0------|-----------------|
|------6-------3-|-(3)----(3)--1--|-0----0--0-1-|-(1)----(1)------|
|-5--5-5---5---4-|-(4)----(4)--2--|-1-------1-2-|-(2)----(2)------|
|-7--7-7---7---3-|-(3)----(3)-----|-------------|-----------------|
|-8--8-----8-----|----------------|-------------|-----------------|
|----------------|----------------|-------------|-----------------|


  Q  E E E E E E   +H     +H        Q   E E E  E E E   +Q   Q  Q  Q
|-0--0-5---------|---------------|-------------------|----------------|
|-2--2-5---5---6-|-(6)----(6)----|--------8--------6-|-(6)--5--3--5---|
|-2--2-6---6---7-|-(7)----(7)----|--7---7-7----7---5-|-(5)--5--4--5---|
|----------7-----|---------------|--9---9-9----9---5-|-(5)--5--5--5---|
|----------------|---------------|-10--10-----10-----|----------------|
|----------------|---------------|-------------------|----------------|


  H    H      W          +Q   Q  Q  E E   E E E E E E E E
|-----------|----------|----------------|------------------|
|------5----|----------|----------------|------------------|
|-5----4----|-2--------|-(2)-----2--4---|---5-5-5-5-5-5-5--|
|-7----5----|-4--------|-(4)------------|------------------|
|-7---------|-5--------|-(5)------------|------------------|
|-----------|----------|----------------|------------------|


  E E E E E E +E  E   +H     +H       W          W
|---------3-3-(3)-5-|-(5)----(5)----|----------|------|
|-3-3-3-3-----------|---------------|----------|------|
|-------------------|---------------|----------|------|
|-------------------|---------------|----------|------|
|-------------------|---------------|----------|------|
|-------------------|---------------|----------|------|


  W          W          W          W
|----------|----------|----------|------|
|----------|----------|----------|------|
|----------|----------|----------|------|
|----------|----------|----------|------|
|----------|----------|----------|------|
|----------|----------|----------|------|


  W          Q  E E +E  E E E   E E E E E E +E  E   +Q   Q  E E E E
|----------|------------------|-------------------|------------------|
|----------|------------------|-----------2-(2)---|-------------2-3--|
|----------|-6--6-6-(6)-6-6-6-|-4-4-4-4-4-------2-|-(2)-------2------|
|----------|------------------|-------------------|------------------|
|----------|------------------|-------------------|------------------|
|----------|------------------|-------------------|------------------|


  +S  S E E E +E  E Q    H    +E  E Q    H    E E +Q     H    +E  E Q
|----------------------|---------------|---------------|---------------|
|-(3)-------3-(3)-2----|-2----(2)-3-2--|--------2-(2)--|-3----(3)-2----|
|-------------------4--|---------------|-4----4--------|------------4--|
|----------------------|---------------|---------------|---------------|
|----------------------|---------------|---------------|---------------|
|----------------------|---------------|---------------|---------------|


  H    H      Q  E E +E  E E E   E E E E E E +E  E   +Q   Q  E E E E
|-----------|------------------|-------------------|------------------|
|-2---------|-2--2-2-(2)-2-2-2-|-----------2-(2)---|-------------2-3--|
|-----------|------------------|-4-4-4-4-4-------2-|-(2)-------2------|
|-----------|------------------|-------------------|------------------|
|-----------|------------------|-------------------|------------------|
|-----------|------------------|-------------------|------------------|


  +S  S E E E +E  E Q    H    +E  E Q    H    E E +Q     H    +E  E Q
|----------------------|---------------|---------------|---------------|
|-(3)-------3-(3)-2----|-2----(2)-3-2--|--------2-(2)--|-3----(3)-5-3--|
|-------------------4--|---------------|-4----4--------|---------------|
|----------------------|---------------|---------------|---------------|
|----------------------|---------------|---------------|---------------|
|----------------------|---------------|---------------|---------------|


  Q  +S  S E H      W          Q  E E +E  E +E  E   +H     +Q   +S  S E
|-----------------|----------|--------------------|----------------------|
|-2--(2)-----4----|-5--------|-5--4-2-(2)-5-(5)-4-|-(4)----(4)--(4)---4--|
|-----------------|----------|--------------------|----------------------|
|-----------------|----------|--------------------|----------------------|
|-----------------|----------|--------------------|----------------------|
|-----------------|----------|--------------------|----------------------|


  Q  E E +E  E +E  E   +H     Q  Q    H    H      W
|--------------------|--------------|-----------|------|
|-4--2-------4-(4)-2-|-(2)----------|------4----|------|
|------4-(4)---------|-----------4--|-3---------|-5----|
|--------------------|--------------|-----------|------|
|--------------------|--------------|-----------|------|
|--------------------|--------------|-----------|------|


  H    H      H    +Q.   E   Q  E E +E  E +E  E   +H     H
|-----------|--------------|--------------------|-------------|
|------3----|-4----(4)---4-|-4--3-1-(1)-4-(4)-3-|-(3)----1----|
|-5---------|--------------|--------------------|-------------|
|-----------|--------------|--------------------|-------------|
|-----------|--------------|--------------------|-------------|
|-----------|--------------|--------------------|-------------|


  H    H      E E E E Q  E E   E E E E Q  E E   E E +E  E Q  Q
|-----------|----------------|----------------|------------------|
|------3----|---1-1---1--1---|---1-1---1--1-1-|---1-(1)-1-3--3---|
|-3---------|-------3------3-|-------3--------|------------------|
|-----------|----------------|----------------|------------------|
|-----------|----------------|----------------|------------------|
|-----------|----------------|----------------|------------------|


  Q  E E E E E E   +H     +Q   +S  S  E    Q   E E E  E E E   +H     +Q.   E
|-0--0-5---------|----------------------|-------------------|----------------|
|-2--2-5---5---6-|-(6)----(6)--(6)------|--------8--------5-|-(5)----(5)-----|
|-2--2-6---6---7-|-(7)----(7)--(7)----7-|--7---7-7----7---5-|-(5)----(5)-----|
|----------7-----|--------------------9-|--9---9-9----9-----|----------------|
|----------------|-------------------10-|-10--10-----10-----|----------------|
|----------------|----------------------|-------------------|----------------|


  Q  E E E E E E   +H     +Q   Q    H    Q  E E   +H     +Q.   E
|----------------|----------------|------0------|-----------------|
|------6-------3-|-(3)----(3)--1--|-0----0--0-1-|-(1)----(1)------|
|-5--5-5---5---4-|-(4)----(4)--2--|-1-------1-2-|-(2)----(2)------|
|-7--7-7---7---3-|-(3)----(3)-----|-------------|-----------------|
|-8--8-----8-----|----------------|-------------|-----------------|
|----------------|----------------|-------------|-----------------|


  Q  E E E E E E   +H     +H        Q   E E E  E E E   +Q   Q  Q  Q
|-0--0-5---------|---------------|-------------------|----------------|
|-2--2-5---5---6-|-(6)----(6)----|--------8--------6-|-(6)--5--3--5---|
|-2--2-6---6---7-|-(7)----(7)----|--7---7-7----7---5-|-(5)--5--4--5---|
|----------7-----|---------------|--9---9-9----9---5-|-(5)--5--5--5---|
|----------------|---------------|-10--10-----10-----|----------------|
|----------------|---------------|-------------------|----------------|


  H    H      W          +Q   Q  Q  E E   E E E E E E E E
|-----------|----------|----------------|------------------|
|------5----|----------|----------------|------------------|
|-5----4----|-2--------|-(2)-----2--4---|---5-5-5-5-5-5-5--|
|-7----5----|-4--------|-(4)------------|------------------|
|-7---------|-5--------|-(5)------------|------------------|
|-----------|----------|----------------|------------------|


  E E E E E E +E  E    +W           +H     +S  S E Q    W
|---------3-3-(3)-5-||-(5)--------|-(5)----(5)--------|------|
|-3-3-3-3-----------||------------|-------------------|------|
|-------------------||------------|-------------------|------|
|-------------------||------------|-------------------|------|
|-------------------||------------|-------------------|------|
|-------------------||------------|-------------------|------|


  W          W          W          W
|----------|----------|----------|------|
|----------|----------|----------|------|
|----------|----------|----------|------|
|----------|----------|----------|------|
|----------|----------|----------|------|
|----------|----------|----------|------|


  W          W          W          W
|----------|----------|----------|------|
|----------|----------|----------|------|
|----------|----------|----------|------|
|----------|----------|----------|------|
|----------|----------|----------|------|
|----------|----------|----------|------|


  W          W          W          W
|----------|----------|----------|------|
|----------|----------|----------|------|
|----------|----------|----------|------|
|----------|----------|----------|------|
|----------|----------|----------|------|
|----------|----------|----------|------|


  W          W          W          W
|----------|----------|----------|------|
|----------|----------|----------|------|
|----------|----------|----------|------|
|----------|----------|----------|------|
|----------|----------|----------|------|
|----------|----------|----------|------|


  Q  E E E E E E   +H     +H        Q   E E E  E E E   +H     +Q.   E
|------5---------|---------------|-------------------|----------------|
|-5--5-5---5---6-|-(6)----(6)----|--------8--------5-|-(5)----(5)-----|
|-6--6-6---6---7-|-(7)----(7)----|--7---7-7----7---5-|-(5)----(5)-----|
|-7--7-----7-----|---------------|--9---9-9----9-----|----------------|
|----------------|---------------|-10--10-----10-----|----------------|
|----------------|---------------|-------------------|----------------|


  Q  E E E E E E   +H     +Q   Q    H    Q  E E   +H     +Q.   E
|----------------|----------------|------0------|----------------|
|------6-------3-|-(3)----(3)--1--|-0----0--0-1-|-(1)----(1)-----|
|-5--5-5---5---4-|-(4)----(4)--2--|-1-------1-2-|-(2)----(2)-----|
|-7--7-7---7---3-|-(3)----(3)-----|-------------|----------------|
|-8--8-----8-----|----------------|-------------|----------------|
|----------------|----------------|-------------|----------------|


  Q  E E E E E E   +H     +H        Q   E E E  E E E   +Q   Q  Q  Q
|-0--0-5---------|---------------|-------------------|---------------|
|-2--2-5---5---6-|-(6)----(6)----|--------8--------6-|-(6)--5--3--5--|
|-2--2-6---6---7-|-(7)----(7)----|--7---7-7----7---5-|-(5)--5--4--5--|
|----------7-----|---------------|--9---9-9----9---5-|-(5)--5--5--5--|
|----------------|---------------|-10--10-----10-----|---------------|
|----------------|---------------|-------------------|---------------|


  H    H      W          +Q   Q  Q  E E   E E E E E E E E
|-----------|----------|----------------|-----------------|
|------5----|----------|----------------|-----------------|
|-5----4----|-2--------|-(2)-----2--4---|---5-5-5-5-5-5-5-|
|-7----5----|-4--------|-(4)------------|-----------------|
|-7---------|-5--------|-(5)------------|-----------------|
|-----------|----------|----------------|-----------------|


  E E E E E E +E  E   +W
|---------3-3-(3)-5-|-(5)----*|
|-3-3-3-3-----------|--------*|
|-------------------|--------*|
|-------------------|--------*|
|-------------------|--------*|
|-------------------|--------*|

Tablature Legend
----------------
 h   - hammer-on
 p   - pull-off
 b   - bend
 pb  - pre-bend
 r   - bend release (if no number after the r, then release immediately)
 /\  - slide into or out of (from/to "nowhere")
 s   - legato slide
 S   - shift slide
 - natural harmonic
[n]  - artificial harmonic
n(n) - tapped harmonic
 ~   - vibrato
 tr  - trill
 T   - tap
 TP  - trem. picking
 PM  - palm muting
\n/  - tremolo bar dip; n = amount to dip
 \n  - tremolo bar down
 n/  - tremolo bar up
/n\  - tremolo bar inverted dip
 =   - hold bend; also acts as connecting device for hammers/pulls
 <> - volume swell (louder/softer)
 x   - on rhythm slash represents muted slash
 o   - on rhythm slash represents single note slash

Bueno , Hay la Tienen :P
un Saludo desde Santo Domingo

            
            
Suggest correction
Creating personal tab
Creating personal tab
You can edit any tab online and save it as your Personal.

You can edit, replace or remove any tab part or add personal notes – all changes will be seen only by you.

Personal tabs can be accessed anytime from any device, even offline.
Learn more »
Give kudos to tab author, rate the tab!
1 2 3 4 5
comments
print report bad tab
guest
You may want to rate the tab now too:
select rating
Wanna post a correction for this tab? Suggest correction