Oops, an error
Loading. Please wait.

La China tab

by Porter
49 views 6 this week
no commentswrite comment
1 2 3 4 5
3 more votes to show rating
add to favorites
×
Save as Personal and add changes to this tab that will be seen only by you. Learn more ›
×
You can save this tab as Personal to edit and correct it or add notes. All changes will be seen only by you. Learn more »
launch autoscroll
font size
0
reset
how to read this tab
guitar tuner
edit
Autoscroll
slow
fast
+/-
esc
set tempo
stop
Versión de la transcrpción: https://www.youtube.com/watch?v=rk2qfn3oU0U

[Intro]
 Min 0:27-0:58
 GI         C#m                 G#m         A                    E
e|--------------------------------------------------------------------------------|
B|------------5----------/-----------/------------/-------9---------------9-------|
G|--------6-----6---6---/--------4--/--------6---/----9-----9---9-----9-----9---9-|
D|------6---6-----6----/------6----/------7-----/---9---9-----9-----9---9-----9---|
A|----4---------------/----6------/----7-------/--7---------------7---------------|
E|-------------------/--4--------/--5---------/-----------------------------------|

[Verse]
Min 0:35
  C#m         G#m       A    E
Dicen que se fue a buscar en el ombligo de la luna
  C#m           G#m    A     E
que trece veces veinte iba a orar
  C#m          G#m        A     E
que cuando vean el alba en el nopal

 Min 0:58-1:27
 GII
e|-----9\16-16-16/11-11-11-11\12-12-12-12\14-14-14---|
B|---------------------------------------------------|
G|---------------------------------------------------|
D|---------------------------------------------------| *Esta parte presenta
A|---------------------------------------------------| algunas variaciones*
E|---------------------------------------------------|

Min 0:58
  C#m                  G#m          A          E
que griten todos ya llegamos de la tierra de Aztlán
  C#m                G#m            A           E
que griten todos ya llegamos de la tierra de Aztlán
  C#m         G#m      A    E
Solo esperan verse en el lugar
  C#m        G#m    A     E
abrazar el suelo y regresar

 [Coro]
 Min 1:28
 GI        C#m          G#m      A     E
       Mexhi, mexhi,  mexhi   mexhicana
 GII
e|-----9-9-9-9----------------------|--9-9-9-9---------------|
B|--------------9-9-9-9\12-12-------|----------9-9-9-9\12-12-|
G|-----6-6-6-6----------------------|--6-6-6-6---------------|  x2
D|--------------6-6-6-6\9--9--------|----------6-6-6-6\9--9--|
A|----------------------------------|------------------------|
E|----------------------------------|------------------------|

[Verse]
Min 1:43
  C#m     G#m-A   E
Me enseñó a esperar
  C#m     G#m-A     E
despeinarnos de la noche

 Min 1:43
 GII
e|-----9\16-16-16/11-11-11-11\12-12-12-12\14-14-14----|
B|----------------------------------------------------|
G|----------------------------------------------------|
D|----------------------------------------------------|   *Esta parte presenta
A|----------------------------------------------------|    algunas variaciones*
E|----------------------------------------------------|

 [Coro]
 Min 1:58
 GI        C#m         G#m    A     E
       Mexhi, mexhi, mexhi mexhicana
 GII
e|-----9-9-9-9---------------------|--9-9-9-9---------------|
B|-------------9-9-9-9\12-12-------|----------9-9-9-9\12-12-|
G|-----6-6-6-6---------------------|--6-6-6-6---------------| x2
D|-------------6-6-6-6\9--9--------|----------6-6-6-6\9--9--|
A|---------------------------------|------------------------|
E|---------------------------------|------------------------|


 Min 2:14
[Outro]
 GI    C#m    G#m   A     E          C#m  G#m    A      E
 GII
e|—---17----16----14----12------|---17----16----17----19-------24~-----|
B|----20b22-19b21-17b19-15b19~--|---20b22-19b21-20b22-22b24~-------------|
G|------------------------------|----------------------------------------|
D|------------------------------|----------------------------------------|
A|------------------------------|----------------------------------------|
E|------------------------------|----------------------------------------|

Min 2:28
C#m G#m A   E  C#m G#m   A  E
Y cada noche, volando estaba
C#m     G#m    A      C#m G#m   A        C#m  G#m   A        C#m   G#m   A     B
hablar contigo sin emitir palabra, sin emitir palabra, sin emitir palabra

[Chorus]
 Min 2:55
 GI      C#m          G#m    A     E
       Mexhi, mexhi, mexhi mexicana
 GII
e|-----9-9-9-9---------------------|--9-9-9-9---------------|
B|-------------9-9-9-9\12-12-------|----------9-9-9-9\12-12-|
G|-----6-6-6-6---------------------|--6-6-6-6---------------| x4
D|-------------6-6-6-6\9--9--------|----------6-6-6-6\9--9--|
A|---------------------------------|------------------------|
E|---------------------------------|------------------------|

[Outro]
 Min 3:25
 GI
e|----------------------------------------|
B|-----------------------7----------------|
G|—8h9-9-8h9-9-8h9-9-8h9---9—-------------|x6
D|----------------------------------------|
A|----------------------------------------|
E|----------------------------------------|

 Min 3:25-4:18
 GII
e|-----16~-16~-16~-17~-16~---|-16~-16~-16~-14~-17~-16~--|
B|---------------------------|--------------------------|
G|---------------------------|--------------------------|
D|---------------------------|--------------------------|
A|---------------------------|--------------------------|
E|---------------------------|--------------------------|

[Verse]
Min 3:40

  E
Seres astrales, unidos uno al otro
Solo lo ve el cielo y los planetas

Min 3:55-4:18
e|--------------------------|
B|--------------------------|
G|-------4-----4------------|
D|----4h6—--4h6-------------|
A|--7-----7-----------------|
E|--------------------------|

Min 3:55
E
Y Cada noche te pido que cantemos

tus bellas melodías, tus bellas melodías


Min 4:18
e|--------7-----7---------------|
B|----7h9—--7h9-----------------|
G|--9-----9---------------------|
D|------------------------------|
A|------------------------------|
E|------------------------------|

[Outro]
4:31-5:11

 GI        C#m          G#m         A            E
e|---------4----|-------------|-----------|--------------------------|
B|--------------|--------4----|--------5--|--------------------------|
G|--------6-----|-------------|-----------|--------4-----------------|
D|------6-------|------6------|------7----|------6-------------------|
A|----4---------|----6--------|----7------|----7---------------------|
E|--------------|--4----------|--5--------|--0-----------------------|

         C#m          G#m         A            E
e|--------------|-------------|-----------|---------------------|
B|----------4---|-------------|-----------|---------------------|
G|--------6-----|--------4----|--------5--|--------4------------|
D|------6-------|------6------|------7----|------6--------------|
A|----4---------|----6--------|----7------|----7----------------|
E|--------------|--4----------|--5--------|--0------------------|

 Min 4:43
 GII
e|---------------------------------------------------------|
B|--9-7-------------------------------9-7------------5-4---|
G|------9-8-6~-9-8~--4--4\6-(6)/9-8~------9-8-6~-4~--------|
D|---------------------6-----------------------------------| x2
A|---------------------------------------------------------|
E|---------------------------------------------------------|


************************************

| /  Slide up
| \  Slide down
| ~  Vibrato
| b  Bend
| h  Hammer-on

************************************

            
            
Suggest correction
Creating personal tab
Creating personal tab
You can edit any tab online and save it as your Personal.

You can edit, replace or remove any tab part or add personal notes – all changes will be seen only by you.

Personal tabs can be accessed anytime from any device, even offline.
Learn more »
Give kudos to tab author, rate the tab!
1 2 3 4 5
comments
print report bad tab
guest
You may want to rate the tab now too:
select rating
Wanna post a correction for this tab? Suggest correction