Oops, an error
Loading. Please wait.

Silence Tab

4,665 views 6 this week
no commentswrite comment
1 2 3 4 5
excellent!
x 3
add to favorites
launch autoscroll
font size
0
reset
how to read this tab
guitar tuner
Autoscroll
slow
fast
+/-
esc
set tempo
stop
Help us to improve Ultimate-Guitar.com Take our survey!
×
Author
----------------------------------------------------------------------------
                      silence-portishead
----------------------------------------------------------------------------
Standard tuning

watch out for time changes

(0:16)

Guitar 1 (octave lower)
e-----------------------------------------------------|
B-------------------------------------------------11--|
G-----------------------------------------------------|
D----------------------------------------8---11-------|  X2
A-----------------------------------------------------|
E-3----------0----------2--------3---6----------------|

Guitar 2 with delay
e--------------------15~---|
B-x/-----------------------|
G-x/-----------------------|
D--------------------------|
A--------------------------|
E--------------------------|


(0:45)

Guitar 1
e-----------------------------------------------------|
B-------------------------------------------------11--|
G-----------------------------------------------------|
D----------------------------------------8---11-------|  Repeat
A-----------------------------------------------------|
E-3----------0----------2--------3---6----------------|

Guitar 3
e-3---------0-----------2--------3---6----------------|
B-3---------0-----------2--------3---6----------------|
G-4---------0-----------3--------4---6----------------|
D-5---------2-----------4--------5---8----------------|
A-5---------2-----------4--------5---8----------------|
E-3---------0-----------2--------3---6----------------|

Guitar 4 (snyth)
e-15~-------------------14~---------------------------|
B-----------------------------------------------------|
G-----------------------------------------------------|
D-----------------------------------------------------|
A-----------------------------------------------------|
E-----------------------------------------------------|

(1:25)

Guitar 2
e-------15-----14--------------------|
B-----------------------13--------12-|
G-12~--------------------------------|
D------------------------------------|
A------------------------------------|
E------------------------------------|

(2:10)

Guitar 1 (NO OCTAVE DOWN)
e-----------------------------------------------------|
B-----------------------------------------------------|
G-----------------------------------------------------|
D---------------------------------------------8-------|
A-----------------------------------------------------|
E-3----------0----------2--------3---6----/9----------|
|
|
|Guitar 4
e-15---------------------14---------------------------|
B-----------------------------------------------------|
G-----------------------------------------------------|
D-----------------------------------------------------|
A-----------------------------------------------------|
E-----------------------------------------------------|


e-----------------------------------------------------|
B-----------------------------------------------------|
G-----------------------------------------------------|
D----------------------------------------------8------|
A-----------------------------------------------------|
E-3----------0----------2--------3---6--6---9---------|
|
|
|
e-15---------------------14---------------------------|
B-----------------------------------------------------|
G-----------------------------------------------------|
D-----------------------------------------------------|
A-----------------------------------------------------|
E-----------------------------------------------------|


e-----------------------------------------------------|
B-----------------------------------------------------|
G-----------------------------------------------------|
D----------------------------------------------8------|
A-----------------------------------------------------|
E-3----------0----------2--------3---6--6---9---------|
|
|
|
e-15--------------------14----------------------------|
B-----------------------------------------------------|
G-----------------------------------------------------|
D-----------------------------------------------------|
A-----------------------------------------------------|
E-----------------------------------------------------|


e-----------------------------------------------------|
B-----------------------------------------------------|
G-----------------------------------------------------|
D----------------------------------------------8------|
A-----------------------------------------------------|
E-3----------0----------2--------3---6--6--6/9--------|
|
|
|
e-15--------------------14----------------------------|
B-----------------------------------------------------|
G-----------------------------------------------------|
D-----------------------------------------------------|
A-----------------------------------------------------|
E-----------------------------------------------------|

(3:05)


Guitar 1 (octave lower)
e-----------------------------------------------------|
B-------------------------------------------------11--|
G-----------------------------------------------------|
D----------------------------------------8---11-------|  Repeat
A-----------------------------------------------------|
E-3----------0----------2--------3---6----------------|

Guitar 3
e-3---------0-----------2--------3---6----------------|
B-3---------0-----------2--------3---6----------------|
G-4---------0-----------3--------4---6----------------|
D-5---------2-----------4--------5---8----------------|
A-5---------2-----------4--------5---8----------------|
E-3---------0-----------2--------3---6----------------|

Guitar 4
e-15~-------------------14~---------------------------|
B-----------------------------------------------------|
G-----------------------------------------------------|
D-----------------------------------------------------|
A-----------------------------------------------------|
E-----------------------------------------------------|

(4:01)

Guitar 2
e------------------------------------------------|
B-10--8-8~-----7-\5-5~-----5--7-7-----5-5/8-7-7--|
G------------------------------------------------|
D------------------------------------------------|
A------------------------------------------------|
E------------------------------------------------|

e-------------------0-----------------0--------------0-|
B-10--8-8~-----7-\4-4~-----8--7-7-----4-4/8-7-7------4-|
G----------------------------------------------------3-|
D------------------------------------------------------|
A------------------------------------------------------|
E------------------------------------------------------|

e-------------------0-----------------0-------------|
B-10--8-8~-----7-\4-4~-----8--7-7-----4-4/8-7-7-----|
G---------------------------------------------------|
D---------------------------------------------------|
A---------------------------------------------------|
E---------------------------------------------------|
|
|
|Guitar 4
e---------------------------------------------------|
B---------------------------------------------------|
G-11-12~-----------12~-------11~--------10-12-11~---|
D-9~---------------9~--------11~-----------11~------|
A-10-~-------------9~--------9~------------10~------|
E---------------------------------------------------|

e-------------------0-----------------0-------------|
B-10--8-8~-----7-\4-4~-----8--7-7-----4-4/8-7-7-----|
G---------------------------------------------------|
D---------------------------------------------------|
A---------------------------------------------------|
E---------------------------------------------------|
|
|
|
e---------------------------------------------------|
B---------------------------------------------------|
G-11-12~-----------12~-------11~--------10-12-11~---|
D-9~---------------9~--------11~-----------11~------|
A-10-~-------------9~--------9~------------10~------|
E---------------------------------------------------|

e--------|
B-10--8--|
G--------|
D--------|
A--------|
E--------|
|
|
|
e--------|
B--------|
G-11-----|
D-9~-----|
A-10-~---|
E--------|
Suggest correction
What's this?
You can suggest a correction to this tab. Community and Mods will review your correction and vote to approve or reject it.
comments
We did not receive enough feedback on this tab! Please rate:
print report bad tab
1 2 3 4 5
guest
You may want to rate the tab now too:
select rating
Please do not post tabs as comments. Select "correction" instead!