Oops, an error
Loading. Please wait.

Small Tab

version 2
version 2

Whole song

1,477 views 3 this week
no commentswrite comment
1 2 3 4 5
3 more votes to show rating
add to favorites
launch autoscroll
font size
0
reset
how to read this tab
guitar tuner
Autoscroll
slow
fast
+/-
esc
set tempo
stop
Help us to improve Ultimate-Guitar.com Take our survey!
×
Portishead's Small
Tab by Royall

Intro
e----------------------------------------------|
B----------------------------------------------|
G-------------------------0---------0----------|
D------2----------------2---------2------------|
A----2---3...-----------2---------3------------|
E--0-------------------------------------------|

CHORUS (Violin) (About 3 or 4 seconds between most strums, yea you've heard the song)
e----------------------------------------------|
B----------------------------------------------|
G----------------------------------------------|
D----------------------------------------------|
A----------------------------------------------|
E-1--1--1--4--4---1--1--4--4--1--1--1--1--4--4-|


e----------------------------------------------|
B----------------------------------------------|
G----------------------------------------------|
D----------------------------------------------|
A----------------------------------------------|
E-1--1--1--4--1--4--1--4--1--1-4---------------|

BACKUP

e------------------------------------------------|  x4
B------------------------------------------------|
G--9--9--9---10/9--9--9---10/9--9--9---7--7--10--|
D------------------------------------------------|
A------------------------------------------------|
E------------------------------------------------|

e------------------------------------------------|
B--10-10-10--11/10-10-10--11/10-10-10--8--8--11--|
G--9--9--9---10/9--9--9---10/9--9--9---7--7--10--|
D------------------------------------------------|
A------------------------------------------------|
E------------------------------------------------|

e-------------------------------------------------|
B--10-10-10--11/10-10-10--11/10-10-10--8--6--3----|
G--9--9--9---10/9--9--9---10/9--9--9---7--5--2----|
D-------------------------------------------------|
A-------------------------------------------------|
E-------------------------------------------------|

e------------------------------------------------|  x2
B------------------------------------------------|
G--9--9--9---10/9--9--9---10/9--9--9---7--7--10--|
D------------------------------------------------|
A------------------------------------------------|
E------------------------------------------------|

e--10-10-10--11/10-10-10--11/10-10-10--8--6--3----|
B--10-10-10--11/10-10-10--11/10-10-10--8--6--3----|
G--9--9--9---10/9--9--9---10/9--9--9---7--5--2----|
D-------------------------------------------------|
A-------------------------------------------------|
E-------------------------------------------------|

e------------------------------------------------|
B------------------------------------------------|
G--9--9--9---10/9--9--9---10/9--9--9---7--7--10--|
D------------------------------------------------|
A------------------------------------------------|
E------------------------------------------------|


e--10-10-10--11/10-10-10--11/10-10-10--8--8--11--|
B--10-10-10--11/10-10-10--11/10-10-10--8--8--11--|
G--9--9--9---10/9--9--9---10/9--9--9---7--7--10--|
D------------------------------------------------|
A------------------------------------------------|
E------------------------------------------------|


e--10-10-10--11/10-10-10--11/10-10-10--8--6--3----|
B--10-10-10--11/10-10-10--11/10-10-10--8--6--3----|
G--9--9--9---10/9--9--9---10/9--9--9---7--5--2----|
D-------------------------------------------------|
A-------------------------------------------------|
E-------------------------------------------------|

And so on, sort of figure out the order from there, here's the SOLO (this is the best I could do):


e------------------------------------------------------------|
B---------------3/5-5----5--3---------------3--4/5---5--3----|
G---4----5~---------------------5--4---4--5----------------5-|
D------------------------------------------------------------|
A------------------------------------------------------------|
E------------------------------------------------------------|

Then it sort of goes back into the loops of the backup, then the violin again.

My first tab! I've tried to have it sound as close as possible. Thanks!
Suggest correction
Give kudos to tab author, rate the tab!
1 2 3 4 5
comments
print report bad tab
guest
You may want to rate the tab now too:
select rating
Wanna post a correction for this tab? Suggest correction