Oops, an error
Loading. Please wait.

Sour Times Tab

version 2
version 2

Whole song

Interactive

6,572 views 6 this week
1 commentread comment
1 2 3 4 5
1 last vote to show rating
add to favorites
launch autoscroll
font size
0
reset
how to read this tab
guitar tuner
Autoscroll
slow
fast
+/-
esc
set tempo
stop
Help us to improve Ultimate-Guitar.com Take our survey!
×
Very similar to the last tab, but the Intro/Chorus was slighty mistabbed (the author 
each note up a semitone). This is the 100% correct tab, and I hope you all use it well.
Sounds great acoustic, but electric with spacey pedals could work wonders. Experiment, 
what happens, its a great song.

Portishead - Sour Times (Dummy, 1994)

Intro/Chorus:

E-------------------------------------------------------|
B-------------------------------------------------------|
G-------------------------------------------------------|
D----7--7--7--7----6-6-6-6---5-5-5-5--------------------|
A----9--9--9--9----7-7-7-7---6-6-6-6--------------------|
E-------------------------------------------------------|


Verse:

E---------------------------------------|
B----5----------------------------------|
G----6----6----5----4-------------------|
D----6----6----5----4----6--------------|
A----4----4----3----2----6--------------|
E------------------------4--------------|  (REPEATED)
Suggest correction
Give kudos to tab author, rate the tab!
1 2 3 4 5
comments
print report bad tab
1 comment total.
0 reply
deleteyrself 105 Jul 27, 2014 11:52 AM

Lack of accuracy.

guest
You may want to rate the tab now too:
select rating
Wanna post a correction for this tab? Suggest correction