Oops, an error
Loading. Please wait.

The Rip Tab

version 2
version 2

Whole song

Interactive

48,585 views 84 this week
no commentswrite comment
1 2 3 4 5
x 14
add to favorites
launch autoscroll
font size
0
reset
how to read this tab
guitar tuner
Autoscroll
slow
fast
+/-
esc
set tempo
stop
Help us to improve Ultimate-Guitar.com Take our survey!
×
Difficulty
novice
I watched the video of Thom Yorke and Jonny Greenwood of Radiohead covering this song.

This is what Thom appears to play.

http://www.youtube.com/watch?v=zPPH1qg8Qo4

E|-----------------------------------------------------|
B|-----8-----------8-----------8-----------8-----------|
G|--------9-----------9-----------9-----------9--------|
D|-----------9-----------9-----------9-----------9-----|
A|--7-----------7-----------7-----------7--------------|
E|-----------------------------------------------------|

E|--------------------------------------------------------------|
B|-----10-------------10-------------10-------------10----------|
G|---------10-------------10-------------10-------------10------|
D|-------------10-------------10-------------10-------------10--|
A|--8--------------8--------------8--------------8--------------|
E|--------------------------------------------------------------|

E|-----------------------------------------------------|
B|-----8-----------8-----------8-----------8-----------|
G|--------9-----------9-----------9-----------9--------|
D|-----------9-----------9-----------9-----------9-----|
A|--7-----------7-----------7-----------7--------------|
E|-----------------------------------------------------|

E|--------------------------------------------------------|
B|------8-------------8-------------8------------7--------|
G|---------9-------------9-------------9------------7-----|
D|------------10------------10------------10-----------9--|
A|--10------------10------------10------------9-----------|
E|--------------------------------------------------------|

E|--------------------------------------------------|
B|-----5-----------5-----------5-----------5--------|
G|--------5-----------5-----------5-----------5-----|
D|-----------7-----------7-----------7-----------7--|
A|--7-----------7-----------7-----------7-----------|
E|--------------------------------------------------|

E|--------------------------------------------------|
B|-----6-----------6-----------6-----------6--------|
G|--------7-----------7-----------7-----------7-----|
D|-----------8-----------8-----------8-----------8--|
A|--8-----------8-----------8-----------8-----------|
E|--------------------------------------------------|

E|--------------------------------------------------|
B|-----5-----------5-----------5-----------5--------|
G|--------5-----------5-----------5-----------5-----|
D|-----------7-----------7-----------7-----------7--|
A|--7-----------7-----------7-----------7-----------|
E|--------------------------------------------------|

E|--------------------------------------------------|
B|-----3-----------3-----------3-----------3--------|
G|--------4-----------4-----------4-----------4-----|
D|-----------5-----------5-----------5-----------5--|
A|--5-----------5-----------5-----------5-----------|
E|--------------------------------------------------|

Repeat

-Adam
Suggest correction
comments
print report bad tab
guest
You may want to rate the tab now too:
select rating
Wanna post a correction for this tab? Suggest correction