Oops, an error
Loading. Please wait.

We Carry On Tab

4,566 views 3 this week
1 commentread comment
1 2 3 4 5
excellent!
x 6
add to favorites
launch autoscroll
font size
0
reset
how to read this tab
guitar tuner
Autoscroll
slow
fast
+/-
esc
set tempo
stop
Help us to improve Ultimate-Guitar.com Take our survey!
×
Author
----------------------------------------------------------------------------
                  we carry on-portishead
----------------------------------------------------------------------------

Guitar 1 and 2 are in standard tuning
Guitar 3 in tuned eBbFDAE


Guitar 1 with long delay
e--------|
B-11~----|
G--------|
D--------|    Repeated in song
A--------|
E--------|


(0:16) Main riff


Guitar2
e-----------------------------------------------|
B-----------------------------------------------|
G-----------------------------------------------|   Reapeat throughout whole
D---8--9-----8--8----8--9----8--8---------------|   song with variations.
A-----------------------------------------------|
E-6-------6---------6------6--------------------|

(1:44)

Guitar 1
e-------------------------------------------------|
B-0--0--0--0--0--0--0--0--0--0--0--0--0--0--0--0--|
G-15^15^15^15^15^15^15^15^15^15^15^15^15^15^15^15\|
D-------------------------------------------------|
A-13^13^13^13^13^13^13^13^13^13^13^13^13^13^13^13\|
E-------------------------------------------------|

e-------------------------------------------------|
B-0--0--0--0--0--0--0--0--0--0--0--0--0--0--0--0--|
G-10^10^10^10^10^10^10^10^10^10^10^10^10^10^10^10/|
D-------------------------------------------------|
A-8^-8^-8^-8^-8^-8^-8^-8^-8^-8^-8^-8^-8^-8^-8^-8/-|
E-------------------------------------------------|

e-------------------------------------------------|
B-0--0--0--0--0--0--0--0--0--0--0--0--0--0--0--0--|
G-15^15^15^15^15^15^15^15^15^15^15^15^15^15^15^15\|
D-------------------------------------------------|
A-13^13^13^13^13^13^13^13^13^13^13^13^13^13^13^13\|
E-------------------------------------------------|

e-------------------------------------------------|
B-0--0--0--0--0--0--0--0--0--0--0--0--0--0--0--0--|
G-10^10^10^10^10^10^10^10^10^10^10^10^10^10^10^10-|
D-------------------------------------------------|
A-8^-8^-8^-8^-8^-8^-8^-8^-8^-8^-8^-8^-8^-8^-8^-8--|
E-------------------------------------------------|

(1:59)

Guitar 2 with slow gear effect

e-------------------------------------------------|
B-------------------------------------------------|
G-------------------------------------------------|
D-------------------------------------------------|   X2
A-------------------------------------------------|
E-4-4-4-4-4-4-4-4-3-3-3-3-3-3-3-3-3-3-3-3-3-3-3-3-|


(2:14)

Guitar 1

e------------------------|
B-12~-----11~------11~---|
G------------------10~---|
D------------------------|
A------------------------|
E------------------------|


Guitar2
e-----------------------------------------------|
B-----------------------------------------------|
G-----------------------------------------------|
D---8--9-----8--8----8--9----8--8---------------|
A-----------------------------------------------|
E-6-------6---------6------6--------------------|


(2:29)

Guitar 3 with distortion (tuning eBbFDAE)
e----------------------------------------------------------|
Bb---------------------------------------------------------|
F----------------------------------------------------------|
D----------------------------------------------------------|
A-11-11-11\9-8----------------11-11-11\9-8-----------------|
E--------------6--6-6-6--6-6---------------6--6-6-6--6-6---|

e---------------------------------------------------------|
Bb--------------------------------------------------------|
F---------------------------------------------------------|
D---------------------------------------------------------|
A-11-11-11\9-8----------------11-11-11\9-8----------------|
E--------------6--6-6-6--7-6---------------6--6-6-6--7-6--|

e---------------------------------------------------------|
Bb--------------------------------------------------------|
F---------------------------------------------------------|
D--------------8--8-8-8--8-8---------------8--8-8-8--8-8--|
A-11-11-11\9-8----------------11-11-11\9-8----------------|
E--------------6--6-6-6--7-6---------------6--6-6-6--7-6--|

e---------------------------------------------------------|
Bb0------------0----0----0----0------------0----0----0-0--|
F-0------------0----0----0--------------------------------|
D--------------8--8-8-8--8-8---------------8--8-8-8--8-8--|
A-11-11-11\9-8----------------11-11-11\9-8----------------|
E--------------6--6-6-6-7776---------------6--6-6-7-7-777-|

e---------------------------------------------------------|
Bb0------------0----0----0----0------------0--0--0--00-0--|
F-0------------0----0----0-----------------0--0---0--0-0--|
D--------------8--8-8-8--8-8---------------8--8-8-8--8-8--|
A-11-11-11\9-8----------------11-11-11\9-8----------------|
E--------------6--7-6-6-7776---------------6--6-6-7-7-777-|

(3:11)

Guitar 1
e--------|
B-11~----|
G--------|
D--------|
A--------|
E--------|

Guitar2
e-----------------------------------------------|
B-----------------------------------------------|
G-----------------------------------------------|
D---8--9-----8--8----8--9----8--8---------------|
A-----------------------------------------------|
E-6-------6---------6------6--------------------|

(3:56)

Guitar 1
e-------------------------------------------------|
B-0--0--0--0--0--0--0--0--0--0--0--0--0--0--0--0--|
G-15^15^15^15^15^15^15^15^15^15^15^15^15^15^15^15\
D-------------------------------------------------
A-13^13^13^13^13^13^13^13^13^13^13^13^13^13^13^13\
E-------------------------------------------------

e-------------------------------------------------|
B-0--0--0--0--0--0--0--0--0--0--0--0--0--0--0--0--|
G-10^10^10^10^10^10^10^10^10^10^10^10^10^10^10^10/
D-------------------------------------------------|
A-8^-8^-8^-8^-8^-8^-8^-8^-8^-8^-8^-8^-8^-8^-8^-8/-|
E-------------------------------------------------|

e-------------------------------------------------|
B-0--0--0--0--0--0--0--0--0--0--0--0--0--0--0--0--|
G-15^15^15^15^15^15^15^15^15^15^15^15^15^15^15^15\
D-------------------------------------------------
A-13^13^13^13^13^13^13^13^13^13^13^13^13^13^13^13\
E-------------------------------------------------

e-------------------------------------------------|
B-0--0--0--0--0--0--0--0--0--0--0--0--0--0--0--0--|
G-10^10^10^10^10^10^10^10^10^10^10^10^10^10^10^10/
D--------------------------------------------------|
A-8^-8^-8^-8^-8^-8^-8^-8^-8^-8^-8^-8^-8^-8^-8^-8---|/
E--------------------------------------------------|


e-------------------------------------------------|
B-0--0--0--0--0--0--0--0--0--0--0--0--0--0--0--0--|
G-15^15^15^15^15^15^15^15^15^15^15^15^15^15^15^15\
D-------------------------------------------------
A-13^13^13^13^13^13^13^13^13^13^13^13^13^13^13^13\
E-------------------------------------------------

e-------------------------------------------------|
B-0--0--0--0--0--0--0--0--0--0--0--0--0--0--0--0--|
G-10^10^10^10^10^10^10^10^10^10^10^10^10^10^10^10/
D-------------------------------------------------|
A-8^-8^-8^-8^-8^-8^-8^-8^-8^-8^-8^-8^-8^-8^-8^-8/-|
E-------------------------------------------------|

e-------------------------------------------------|
B-0--0--0--0--0--0--0--0--0--0--0--0--0--0--0--0--|
G-15^15^15^15^15^15^15^15^15^15^15^15^15^15^15^15\
D-------------------------------------------------
A-13^13^13^13^13^13^13^13^13^13^13^13^13^13^13^13\
E-------------------------------------------------

e-------------------------------------------------|
B-0--0--0--0--0--0--0--0--0--0--0--0--0--0--0--0--|
G-10^10^10^10^10^10^10^10^10^10^10^10^10^10^10^10-
D-------------------------------------------------|
A-8^-8^-8^-8^-8^-8^-8^-8^-8^-8^-8^-8^-8^-8^-8^-8--|
E-------------------------------------------------|


(4:25)

Guitar 2 with slow gear effect again

e-------------------------------------------------|
B-------------------------------------------------|
G-------------------------------------------------|
D-------------------------------------------------|   X4
A-------------------------------------------------|
E-4-4-4-4-4-4-4-4-3-3-3-3-3-3-3-3-3-3-3-3-3-3-3-3-|

(4:50)

Guitar 1
e------------------------|
B-12~-----11~------11~---|
G------------------10~---|
D------------------------|
A------------------------|
E------------------------|


Guitar2
e-----------------------------------------------|
B-----------------------------------------------|
G-----------------------------------------------|
D---8--9-----8--8----8--9----8--8---------------|
A-----------------------------------------------|
E-6-------6---------6------6--------------------|

(5:04)

Guitar 3
e---------------------------------------------------------|
Bb0------------0----0----0----0------------0----0----0-0--|
F-0------------0----0----0--------------------------------|
D--------------8--8-8-8--8-8---------------8--8-8-8--8-8--|
A-11-11-11\9-8----------------11-11-11\9-8----------------|
E--------------6--6-6-6-7776---------------6--6-6-7-7-777-|

e---------------------------------------------------------|
Bb0------------0----0----0----0------------0--0--0--00-0--|
F-0--0--0------0----0----0-----------------0--0---0--0-0--|
D--------------8--8-8-8--8-8---------------8--8-8-8--8-8--|
A-11-11-11\9-8----------------11-11-11\9-8----------------|
E--------------6--7-6-6-7776---------------6--6-6-7-7-777-|


e---------------------------------------------------------|
Bb0------------0----0----0----0------------0----0----0-0--|
F-0------------0----0----0--------------------------------|
D--------------8--8-8-8--8-8---------------8--8-8-8--8-8--|
A-11-11-11\9-8----------------11-11-11\9-8----------------|
E--------------6--6-4-6-7776---------------6--6-6-7-7-777-|

e---------------------------------------------------------|
Bb------------0----0----0-----0--------0---0--0--0--00-0--|
F-0--0--0-----0----0----0-----0--0--0--0-0-0--0---0--0-0--|
D--------------8--8-8-8--8-8---------------8--8-8-8--8-8--|
A-11-11-11\9-8----------------11-11-11\9-8----------------|
E--------------6--7-6-6-7776---------------6--4-6-7-7-777-|

(6:04)

Guitar2
e-----------------------------------------------|
B-----------------------------------------------|
G-----------------------------------------------|
D---8--9-----8--8----8--9----8--8---------------|
A-----------------------------------------------|
E-6-------6---------6------6--------------------|

Fade out


\ slide down
/slide up
^small bend
~vibrato
Suggest correction
comments
print report bad tab
1 comment total.
0 reply
Masquirina 110 wrote on October 3 2013, 05:31 pm

important note- song is great for jumping/dancing around while playing.

guest
You may want to rate the tab now too:
select rating
Wanna post a correction for this tab? Suggest correction