Oops, an error
Loading. Please wait.

Bang Yer Head intro tab

299 views 3 this week
2 commentsread comments
1 2 3 4 5
2 more votes to show rating
add to favorites
×
Save as Personal and add changes to this tab that will be seen only by you. Learn more ›
×
You can save this tab as Personal to edit and correct it or add notes. All changes will be seen only by you. Learn more »
launch autoscroll
font size
0
reset
how to read this tab
guitar tuner
edit
Autoscroll
slow
fast
+/-
esc
set tempo
stop
-------------------------------------------------------------------------------
                             Bang Yer Head - Portraits of Past
-------------------------------------------------------------------------------
Tabbed by: ME:)
E-mail: danielgomez7682@yahoo.com

Tuning:EADGBe

e|---------------------------------7-----------------------------------------|
B|---9h10p9---------9--------------------------------------------------------|
G|--------------11-----11---9--9--------9---11--------------------------------|x6
D|---------------------------------------------------------------------------|
A|---------------------------------------------------------------------------|
E|---------------------------------------------------------------------------|

I only have that part of The tab right now 
If you know more email me so i can add it.











************************************

| /   slide up
| \   slide down
| h   hammer-on
| p   pull-off
| ~   vibrato
| +   harmonic
| x   Mute note
| b   Bend
| pb  Pre-bend
| br  Bend release
| pbr Pre-bend release
| brb Bend release bend

************************************

            
            
Suggest correction
Creating personal tab
Creating personal tab
You can edit any tab online and save it as your Personal.

You can edit, replace or remove any tab part or add personal notes – all changes will be seen only by you.

Personal tabs can be accessed anytime from any device, even offline.
Learn more »
Give kudos to tab author, rate the tab!
1 2 3 4 5
comments
print report bad tab
2 comments total.
0 reply
BenadDeluxe 176 Nov 30, 2015 02:06 PM

I'm pretty sure this song was in Drop C#. I just tried to figure it out on bass, and I know that's the lowest note hit on bass. I don't have anything for guitar, though, and thanks for tabbing this!

0 reply
BenadDeluxe 176 Dec 13, 2015 03:06 PM

I stand corrected, I got the harmonics to match up and it's either standard or Drop d.
I also got some of the quiet part.
The first part is about 2:44 and the second is before and during when the vocals start again. (Don't shoot don't show)
e|----------------------------------------------------------------------|
B|----------------------------------------------------------------------|
G|-4-1---4-1---2-1-4-2-1-4---------4-------4-------1--1--1--1-----------|
D|-----2-----2-----------------------2-2-----2-2----2--2--2--2----------|
A|--------------------------------4-4-4-4-4-4-4-4\2--2--2--2--2/4-------|
E|----------------------------------------------------------------------|

guest
You may want to rate the tab now too:
select rating
Wanna post a correction for this tab? Suggest correction