Oops, an error
Loading. Please wait.

And I Tab

version 3
version 3

Whole song

  • This tab has the lead part during the chorus and s... Show more
25 views 6 this week
no commentswrite comment
1 2 3 4 5
3 more votes to show rating
add to favorites
launch autoscroll
font size
0
reset
how to read this tab
guitar tuner
Autoscroll
slow
fast
+/-
esc
set tempo
stop
Help us to improve Ultimate-Guitar.com Take our survey!
×
Author
Difficulty
About this tab version
This tab has the lead part during the chorus and shows the nuances/rhythm of the chords during the verses. Was this info helpful? Yes No
Portugal. The Man
And I
Censored Colors (2008)

Tuning - EADGBe

3/4

[INTRO]

[Piano arranged for Guitar]

e|-0----------------------|-0----------------------|-0----------------------|-0----------------------|
B|-1----------------------|-1----------------------|-1----------------------|-1----------------------|
G|-2----------------------|-2----------------------|-2----------------------|-2----------------------|
D|-2----------------------|-2----------------------|-2----------------------|-2----------------------|
A|-0----------------------|-0----------------------|-0----------------------|-0----------------------|
E|------------------------|------------------------|------------------------|------------------------|

e|-1----------------------|-1----------------------|-1----------------------|-1----------------------|
B|-3----------------------|-3----------------------|-3----------------------|-3----------------------|
G|-2----------------------|-2----------------------|-2----------------------|-2----------------------|
D|-0----------------------|-0----------------------|-0----------------------|-0----------------------|
A|-0----------------------|-0----------------------|-0----------------------|-0----------------------|
E|------------------------|------------------------|------------------------|------------------------|

e|-3----------------------|-3----------------------|-1----------------------|-1----------------------|
B|-0----------------------|-0----------------------|-0----------------------|-0----------------------|
G|-0----------------------|-0----------------------|-0----------------------|-0----------------------|
D|-0----------------------|-0----------------------|-0----------------------|-0----------------------|
A|-2----------------------|-2----------------------|-2----------------------|-2----------------------|
E|-3----------------------|-3----------------------|-3----------------------|-3----------------------|

e|-0----------------------|------------------------|------------------------|------------------------|
B|-1----------------------|------------------------|------------------------|------------------------|
G|-0----------------------|------------------------|------------------------|------------------------|
D|-2----------------------|------------------------|------------------------|------------------------|
A|-3----------------------|------------------------|------------------------|------------------------|
E|------------------------|------------------------|------------------------|------------------------|

                                                                              Some    were    re-


[VERSE]

[Piano arranged for Guitar]

e|-0----------------------|-0----------------------|-0----------------------|-0----------------------|\ 
B|-1----------------------|-1----------------------|-1----------------------|-1----------------------| \
G|-2----------------------|-2----------------------|-2----------------------|-2----------------------|  |
D|-2----------------------|-2----------------------|-2----------------------|-2----------------------|  |
A|-0----------------------|-0----------------------|-0----------------------|-0----------------------|  |
E|------------------------|------------------------|------------------------|------------------------|  |
                                                                                                        |
[Acoustic Guitar]                                                                                       |
                                                                                                        |
e|-0-----------0---0---0--|-0-------0-------0------|-0-----------0---0---0--|-0-------0-------0------|  |
B|-1-----------1---1---1--|-1-------1-------1------|-1-----------1---1---1--|-1-------1-------1------|  |
G|-2-----------2---2---2--|-2-------2-------2------|-2-----------2---2---2--|-2-------2-------2------|  |
D|-2-----------0---2---0--|-2-------0-------2------|-2-----------0---2---0--|-2-------0-------2------|  |
A|-0-----------0---0---0--|-0-------0-------0------|-0-----------0---0---0--|-0-------0-------0------| /
E|------------------------|------------------------|------------------------|------------------------|/

   born                                                                       Some    were    simp-


[Piano arranged for Guitar]

e|-1----------------------|-1----------------------|-1----------------------|-1----------------------|\
B|-3----------------------|-3----------------------|-3----------------------|-3----------------------| \
G|-2----------------------|-2----------------------|-2----------------------|-2----------------------|  |
D|-0----------------------|-0----------------------|-0----------------------|-0----------------------|  |
A|-0----------------------|-0----------------------|-0----------------------|-0----------------------|  |
E|------------------------|------------------------|------------------------|------------------------|  |
                                                                                                        |
[Acoustic Guitar]                                                                                       |
                                                                                                        |
e|-1-----------1---1---1--|-1-------1-------1------|-1-----------1---1---1--|-1-------1--------------|  |
B|-3-----------3---3---3--|-3-------3-------3------|-3-----------3---3---3--|-3-------3--------------|  |
G|-2-----------0---2---0--|-2-------0-------2------|-2-----------0---2---0--|-2-------0--------------|  |
D|-0-----------0---0---0--|-0-------0-------0------|-0-----------0---0---0--|-0-------0-------0------|  |
A|-0-----------0---0---0--|-0-------0-------0------|-0-----------0---0---0--|-0-------0-------0------| /
E|------------------------|------------------------|------------------------|------------------------|/

   ly      sha    -ken       free                                    And       some    were    the 


[Piano arranged for Guitar]

e|-3----------------------|-3----------------------|-1----------------------|-1----------------------|\
B|-0----------------------|-0----------------------|-0----------------------|-0----------------------| \
G|-0----------------------|-0----------------------|-0----------------------|-0----------------------|  |
D|-0----------------------|-0----------------------|-0----------------------|-0----------------------|  |
A|-2----------------------|-2----------------------|-2----------------------|-2----------------------|  |
E|-3----------------------|-3----------------------|-3----------------------|-3----------------------|  |
                                                                                                        |
[Acoustic Guitar]                                                                                       |
                                                                                                        |
e|-3-----------3---3---3--|-3-----------3---3---3--|-1-----------1---1---1--|-1-----------1---1---1--|  |
B|-0-----------0---0---0--|-0-----------0---0---0--|-0-----------0---0---0--|-0-----------0---0---0--|  |
G|-0-----------0---0---0--|-0-----------0---0---0--|-0-----------0---0---0--|-0-----------0---0---0--|  |
D|-0-----------0---0---0--|-0-----------0---0---0--|-0-----------0---0---0--|-0-----------0---0---0--|  |
A|-2-----------2---2---2--|-2-----------2---2---2--|-2-----------2---2---2--|-2-----------2---2---2--| /
E|-3-----------3---3---3--|-3-----------3---3---3--|-3-----------3---3---3--|-3-----------3---3---3--|/

   colors                                                            That     took    to      the



[Piano arranged for Guitar]

e|-0----------------------|-0----------------------|-0----------------------|-0----------------------|\
B|-1----------------------|-1----------------------|-0----------------------|-0----------------------| \
G|-0----------------------|-0----------------------|-1----------------------|-1----------------------|  |
D|-2----------------------|-2----------------------|-0----------------------|-0----------------------|  |
A|-3----------------------|-3----------------------|-2----------------------|-2----------------------|  |
E|------------------------|------------------------|------------------------|------------------------|  |
                                                                                                        |
[Acoustic Guitar]                                                                                       |
                                                                                                        |
e|-0-----------0---0---0--|-0-----------0---0---0--|-0----------------------|-0-----------0---0---0--|  |
B|-1-----------1---1---1--|-1-----------1---1---1--|-0----------------------|-0-----------0---0---0--|  |
G|-0-----------0---0---0--|-0-----------0---0---0--|-1----------------------|-1-----------1---1---1--|  |
D|-2-----------2---2---2--|-2-----------2---2---2--|-0----------------------|-0-----------0---0---0--|  |
A|-3-----------3---3---3--|-3-----------3---3---3--|-2----------------------|-2-----------2---2---2--| /
E|------------------------|------------------------|------------------------|------------------------|/

   streets                                                              They  found   in      those



[Piano arranged for Guitar]

e|-0----------------------|-0----------------------|-0----------------------|-0----------------------|\ 
B|-1----------------------|-1----------------------|-1----------------------|-1----------------------| \
G|-2----------------------|-2----------------------|-2----------------------|-2----------------------|  |
D|-2----------------------|-2----------------------|-2----------------------|-2----------------------|  |
A|-0----------------------|-0----------------------|-0----------------------|-0----------------------|  |
E|------------------------|------------------------|------------------------|------------------------|  |
                                                                                                        |
[Acoustic Guitar]                                                                                       |
                                                                                                        |
e|-0-----------0---0---0--|-0-------0-------0------|-0-----------0---0---0--|-0-------0-------0------|  |
B|-1-----------1---1---1--|-1-------1-------1------|-1-----------1---1---1--|-1-------1-------1------|  |
G|-2-----------2---2---2--|-2-------2-------2------|-2-----------2---2---2--|-2-------2-------2------|  |
D|-2-----------0---2---0--|-2-------0-------2------|-2-----------0---2---0--|-2-------0-------2------|  |
A|-0-----------0---0---0--|-0-------0-------0------|-0-----------0---0---0--|-0-------0-------0------| /
E|------------------------|------------------------|------------------------|------------------------|/

   la     -ter     years                                             They     knew    what    we



[Piano arranged for Guitar]

e|-1----------------------|-1----------------------|-1----------------------|-1----------------------|\
B|-3----------------------|-3----------------------|-3----------------------|-3----------------------| \
G|-2----------------------|-2----------------------|-2----------------------|-2----------------------|  |
D|-0----------------------|-0----------------------|-0----------------------|-0----------------------|  |
A|-0----------------------|-0----------------------|-0----------------------|-0----------------------|  |
E|------------------------|------------------------|------------------------|------------------------|  |
                                                                                                        |
[Acoustic Guitar]                                                                                       |
                                                                                                        |
e|-1-----------1---1---1--|-1-------1-------1------|-1-----------1---1---1--|-1-------1--------------|  |
B|-3-----------3---3---3--|-3-------3-------3------|-3-----------3---3---3--|-3-------3--------------|  |
G|-2-----------0---2---0--|-2-------0-------2------|-2-----------0---2---0--|-2-------0--------------|  |
D|-0-----------0---0---0--|-0-------0-------0------|-0-----------0---0---0--|-0-------0-------0------|  |
A|-0-----------0---0---0--|-0-------0-------0------|-0-----------0---0---0--|-0-------0-------0------| /
E|------------------------|------------------------|------------------------|------------------------|/ 

   need                                                              It's     love    for     each-



[Piano arranged for Guitar]

e|-3----------------------|-3----------------------|-1----------------------|-1----------------------|\
B|-0----------------------|-0----------------------|-0----------------------|-0----------------------| \
G|-0----------------------|-0----------------------|-0----------------------|-0----------------------|  |
D|-0----------------------|-0----------------------|-0----------------------|-0----------------------|  |
A|-2----------------------|-2----------------------|-2----------------------|-2----------------------|  |
E|-3----------------------|-3----------------------|-3----------------------|-3----------------------|  |
                                                                                                        |
[Acoustic Guitar]                                                                                       |
                                                                                                        |
e|-3-----------3---3---3--|-3-----------3---3---3--|-1-----------1---1---1--|-1-----------1---1---1--|  |
B|-0-----------0---0---0--|-0-----------0---0---0--|-0-----------0---0---0--|-0-----------0---0---0--|  |
G|-0-----------0---0---0--|-0-----------0---0---0--|-0-----------0---0---0--|-0-----------0---0---0--|  |
D|-0-----------0---0---0--|-0-----------0---0---0--|-0-----------0---0---0--|-0-----------0---0---0--|  |
A|-2-----------2---2---2--|-2-----------2---2---2--|-2-----------2---2---2--|-2-----------2---2---2--| /
E|-3-----------3---3---3--|-3-----------3---3---3--|-3-----------3---3---3--|-3-----------3---3---3--|/

   other                                                             And      every   liv     -ing



[Piano arranged for Guitar]

e|-0----------------------|-0----------------------|-0----------------------|-0----------------------|\
B|-1----------------------|-1----------------------|-1----------------------|-1----------------------| \
G|-0----------------------|-0----------------------|-0----------------------|-0----------------------|  |
D|-2----------------------|-2----------------------|-0----------------------|-0----------------------|  |
A|-3----------------------|-3----------------------|-2----------------------|-2----------------------|  |
E|------------------------|------------------------|------------------------|------------------------|  |
                                                                                                        |
[Acoustic Guitar]                                                                                       |
                                                                                                        |
e|-0-----------0---0---0--|-0-----------0---0---0--|-0----------------------|-0-----------0---0---0--|  |
B|-1-----------1---1---1--|-1-----------1---1---1--|-1----------------------|-1-----------1---1---1--|  |
G|-0-----------0---0---0--|-0-----------0---0---0--|-0----------------------|-0-----------0---0---0--|  |
D|-2-----------2---2---2--|-2-----------2---2---2--|-0----------------------|-0-----------0---0---0--|  |
A|-3-----------3---3---3--|-3-----------3---3---3--|-2----------------------|-2-----------2---2---2--| /
E|------------------------|------------------------|------------------------|------------------------|/

   thing                                                                              And     now



[Piano arranged for Guitar]

e|-0----------------------|-0----------------------|-0----------------------|-0----------------------|\ 
B|-1----------------------|-1----------------------|-1----------------------|-1----------------------| \
G|-2----------------------|-2----------------------|-2----------------------|-2----------------------|  |
D|-2----------------------|-2----------------------|-2----------------------|-2----------------------|  |
A|-0----------------------|-0----------------------|-0----------------------|-0----------------------|  |
E|------------------------|------------------------|------------------------|------------------------|  |
                                                                                                        |
[Acoustic Guitar]                                                                                       |
                                                                                                        |
e|-0-----------0---0---0--|-0-------0-------0------|-0-----------0---0---0--|-0-------0-------0------|  |
B|-1-----------1---1---1--|-1-------1-------1------|-1-----------1---1---1--|-1-------1-------1------|  |
G|-2-----------2---2---2--|-2-------2-------2------|-2-----------2---2---2--|-2-------2-------2------|  |
D|-2-----------0---2---0--|-2-------0-------2------|-2-----------0---2---0--|-2-------0-------2------|  |
A|-0-----------0---0---0--|-0-------0-------0------|-0-----------0---0---0--|-0-------0-------0------| /
E|------------------------|------------------------|------------------------|------------------------|/

   All                      my                       time                     
                                                                              (All    my      time)



[Piano arranged for Guitar]

e|-1----------------------|-1----------------------|-1----------------------|-1----------------------|\
B|-3----------------------|-3----------------------|-3----------------------|-3----------------------| \
G|-2----------------------|-2----------------------|-2----------------------|-2----------------------|  |
D|-0----------------------|-0----------------------|-0----------------------|-0----------------------|  |
A|-0----------------------|-0----------------------|-0----------------------|-0----------------------|  |
E|------------------------|------------------------|------------------------|------------------------|  |
                                                                                                        |
[Acoustic Guitar]                                                                                       |
                                                                                                        |
e|-1-----------1---1---1--|-1-------1-------1------|-1-----------1---1---1--|-1-------1--------------|  |
B|-3-----------3---3---3--|-3-------3-------3------|-3-----------3---3---3--|-3-------3--------------|  |
G|-2-----------0---2---0--|-2-------0-------2------|-2-----------0---2---0--|-2-------0--------------|  |
D|-0-----------0---0---0--|-0-------0-------0------|-0-----------0---0---0--|-0-------0-------0------|  |
A|-0-----------0---0---0--|-0-------0-------0------|-0-----------0---0---0--|-0-------0-------0------| /
E|------------------------|------------------------|------------------------|------------------------|/

                   Is       used                                                              It's

 

[Piano arranged for Guitar]

e|-3----------------------|-3----------------------|-1----------------------|-1----------------------|\
B|-0----------------------|-0----------------------|-0----------------------|-0----------------------| \
G|-0----------------------|-0----------------------|-0----------------------|-0----------------------|  |
D|-0----------------------|-0----------------------|-0----------------------|-0----------------------|  |
A|-2----------------------|-2----------------------|-2----------------------|-2----------------------|  |
E|-3----------------------|-3----------------------|-3----------------------|-3----------------------|  |
                                                                                                        |
[Acoustic Guitar]                                                                                       |
                                                                                                        |
e|-3-----------3---3---3--|-3-----------3---3---3--|-1-----------1---1---1--|-1-----------1---1---1--|  |
B|-0-----------0---0---0--|-0-----------0---0---0--|-0-----------0---0---0--|-0-----------0---0---0--|  |
G|-0-----------0---0---0--|-0-----------0---0---0--|-0-----------0---0---0--|-0-----------0---0---0--|  |
D|-0-----------0---0---0--|-0-----------0---0---0--|-0-----------0---0---0--|-0-----------0---0---0--|  |
A|-2-----------2---2---2--|-2-----------2---2---2--|-2-----------2---2---2--|-2-----------2---2---2--| /
E|-3-----------3---3---3--|-3-----------3---3---3--|-3-----------3---3---3--|-3-----------3---3---3--|/

   on     -ly                                                                 lone   -ly      time



[Piano arranged for Guitar]

e|-0----------------------|-0----------------------|-0----------------------|-0----------------------|\
B|-1----------------------|-1----------------------|-1----------------------|-1----------------------| \
G|-0----------------------|-0----------------------|-0----------------------|-0----------------------|  |
D|-2----------------------|-2----------------------|-0----------------------|-0----------------------|  |
A|-3----------------------|-3----------------------|-2----------------------|-2----------------------|  |
E|------------------------|------------------------|------------------------|------------------------|  |
                                                                                                        |
[Acoustic Guitar]                                                                                       |
                                                                                                        |
e|-0-----------0---0---0--|-0-----------0---0---0--|-0----------------------|-0-----------0---0---0--|  |
B|-1-----------1---1---1--|-1-----------1---1---1--|-1----------------------|-1-----------1---1---1--|  |
G|-0-----------0---0---0--|-0-----------0---0---0--|-0----------------------|-0-----------0---0---0--|  |
D|-2-----------2---2---2--|-2-----------2---2---2--|-0----------------------|-0-----------0---0---0--|  |
A|-3-----------3---3---3--|-3-----------3---3---3--|-2----------------------|-2-----------2---2---2--| /
E|------------------------|------------------------|------------------------|------------------------|/

   too



[Piano arranged for Guitar]

e|-0----------------------|-0----------------------|-0----------------------|-0----------------------|\ 
B|-1----------------------|-1----------------------|-1----------------------|-1----------------------| \
G|-2----------------------|-2----------------------|-2----------------------|-2----------------------|  |
D|-2----------------------|-2----------------------|-2----------------------|-2----------------------|  |
A|-0----------------------|-0----------------------|-0----------------------|-0----------------------|  |
E|------------------------|------------------------|------------------------|------------------------|  |
                                                                                                        |
[Acoustic Guitar]                                                                                       |
                                                                                                        |
e|-0-----------0---0---0--|-0-------0-------0------|-0-----------0---0---0--|-0-------0-------0------|  |
B|-1-----------1---1---1--|-1-------1-------1------|-1-----------1---1---1--|-1-------1-------1------|  |
G|-2-----------2---2---2--|-2-------2-------2------|-2-----------2---2---2--|-2-------2-------2------|  |
D|-2-----------0---2---0--|-2-------0-------2------|-2-----------0---2---0--|-2-------0-------2------|  |
A|-0-----------0---0---0--|-0-------0-------0------|-0-----------0---0---0--|-0-------0-------0------| /
E|------------------------|------------------------|------------------------|------------------------|/

                                                                              Some    were    simp-



[Piano arranged for Guitar]

e|-1----------------------|-1----------------------|-1----------------------|-1----------------------|\
B|-3----------------------|-3----------------------|-3----------------------|-3----------------------| \
G|-2----------------------|-2----------------------|-2----------------------|-2----------------------|  |
D|-0----------------------|-0----------------------|-0----------------------|-0----------------------|  |
A|-0----------------------|-0----------------------|-0----------------------|-0----------------------|  |
E|------------------------|------------------------|------------------------|------------------------|  |
                                                                                                        |
[Acoustic Guitar]                                                                                       |
                                                                                                        |
e|-1-----------1---1---1--|-1-------1-------1------|-1-----------1---1---1--|-1-------1--------------|  |
B|-3-----------3---3---3--|-3-------3-------3------|-3-----------3---3---3--|-3-------3--------------|  |
G|-2-----------0---2---0--|-2-------0-------2------|-2-----------0---2---0--|-2-------0--------------|  |
D|-0-----------0---0---0--|-0-------0-------0------|-0-----------0---0---0--|-0-------0-------0------|  |
A|-0-----------0---0---0--|-0-------0-------0------|-0-----------0---0---0--|-0-------0-------0------| /
E|------------------------|------------------------|------------------------|------------------------|/

   ly      sha    -ken      free                                              Some    were    the 



[Piano arranged for Guitar]

e|-3----------------------|-3----------------------|-1----------------------|-1----------------------|\
B|-0----------------------|-0----------------------|-0----------------------|-0----------------------| \
G|-0----------------------|-0----------------------|-0----------------------|-0----------------------|  |
D|-0----------------------|-0----------------------|-0----------------------|-0----------------------|  |
A|-2----------------------|-2----------------------|-2----------------------|-2----------------------|  |
E|-3----------------------|-3----------------------|-3----------------------|-3----------------------|  |
                                                                                                        |
[Acoustic Guitar]                                                                                       |
                                                                                                        |
e|-3-----------3---3---3--|-3-----------3---3---3--|-1-----------1---1---1--|-1-----------1---1---1--|  |
B|-0-----------0---0---0--|-0-----------0---0---0--|-0-----------0---0---0--|-0-----------0---0---0--|  |
G|-0-----------0---0---0--|-0-----------0---0---0--|-0-----------0---0---0--|-0-----------0---0---0--|  |
D|-0-----------0---0---0--|-0-----------0---0---0--|-0-----------0---0---0--|-0-----------0---0---0--|  |
A|-2-----------2---2---2--|-2-----------2---2---2--|-2-----------2---2---2--|-2-----------2---2---2--| /
E|-3-----------3---3---3--|-3-----------3---3---3--|-3-----------3---3---3--|-3-----------3---3---3--|/

   color                                                             That     took    to      the



[Piano arranged for Guitar]

e|-0----------------------|-0----------------------|-0----------------------|-0----------------------|\
B|-1----------------------|-1----------------------|-1----------------------|-1----------------------| \
G|-0----------------------|-0----------------------|-0----------------------|-0----------------------|  |
D|-2----------------------|-2----------------------|-0----------------------|-0----------------------|  |
A|-3----------------------|-3----------------------|-2----------------------|-2----------------------|  |
E|------------------------|------------------------|------------------------|------------------------|  |
                                                                                                        |
[Acoustic Guitar]                                                                                       |
                                                                                                        |
e|-0-----------0---0---0--|-0-----------0---0---0--|-0----------------------|-0-----------0---0---0--|  |
B|-1-----------1---1---1--|-1-----------1---1---1--|-1----------------------|-1-----------1---1---1--|  |
G|-0-----------0---0---0--|-0-----------0---0---0--|-0----------------------|-0-----------0---0---0--|  |
D|-2-----------2---2---2--|-2-----------2---2---2--|-0----------------------|-0-----------0---0---0--|  |
A|-3-----------3---3---3--|-3-----------3---3---3--|-2----------------------|-2-----------2---2---2--| /
E|------------------------|------------------------|------------------------|------------------------|/

   streets                                                           They     thought in      those



[Piano arranged for Guitar]

e|-0----------------------|-0----------------------|-0----------------------|-0----------------------|\ 
B|-1----------------------|-1----------------------|-1----------------------|-1----------------------| \
G|-2----------------------|-2----------------------|-2----------------------|-2----------------------|  |
D|-2----------------------|-2----------------------|-2----------------------|-2----------------------|  |
A|-0----------------------|-0----------------------|-0----------------------|-0----------------------|  |
E|------------------------|------------------------|------------------------|------------------------|  |
                                                                                                        |
[Acoustic Guitar]                                                                                       |
                                                                                                        |
e|-0-----------0---0---0--|-0-------0-------0------|-0-----------0---0---0--|-0-------0-------0------|  |
B|-1-----------1---1---1--|-1-------1-------1------|-1-----------1---1---1--|-1-------1-------1------|  |
G|-2-----------2---2---2--|-2-------2-------2------|-2-----------2---2---2--|-2-------2-------2------|  |
D|-2-----------0---2---0--|-2-------0-------2------|-2-----------0---2---0--|-2-------0-------2------|  |
A|-0-----------0---0---0--|-0-------0-------0------|-0-----------0---0---0--|-0-------0-------0------| /
E|------------------------|------------------------|------------------------|------------------------|/

   young  -er      years                                             They     knew    what    to    



[Piano arranged for Guitar]

e|-1----------------------|-1----------------------|-1----------------------|-1----------------------|\
B|-3----------------------|-3----------------------|-3----------------------|-3----------------------| \
G|-2----------------------|-2----------------------|-2----------------------|-2----------------------|  |
D|-0----------------------|-0----------------------|-0----------------------|-0----------------------|  |
A|-0----------------------|-0----------------------|-0----------------------|-0----------------------|  |
E|------------------------|------------------------|------------------------|------------------------|  |
                                                                                                        |
[Acoustic Guitar]                                                                                       |
                                                                                                        |
e|-1-----------1---1---1--|-1-------1-------1------|-1-----------1---1---1--|-1-------1--------------|  |
B|-3-----------3---3---3--|-3-------3-------3------|-3-----------3---3---3--|-3-------3--------------|  |
G|-2-----------0---2---0--|-2-------0-------2------|-2-----------0---2---0--|-2-------0--------------|  |
D|-0-----------0---0---0--|-0-------0-------0------|-0-----------0---0---0--|-0-------0-------0------|  |
A|-0-----------0---0---0--|-0-------0-------0------|-0-----------0---0---0--|-0-------0-------0------| /
E|------------------------|------------------------|------------------------|------------------------|/

   do                                                                They     knew    what    to 



[Piano arranged for Guitar]

e|-3----------------------|-3----------------------|-1----------------------|-1----------------------|\
B|-0----------------------|-0----------------------|-0----------------------|-0----------------------| \
G|-0----------------------|-0----------------------|-0----------------------|-0----------------------|  |
D|-0----------------------|-0----------------------|-0----------------------|-0----------------------|  |
A|-2----------------------|-2----------------------|-2----------------------|-2----------------------|  |
E|-3----------------------|-3----------------------|-3----------------------|-3----------------------|  |
                                                                                                        |
[Acoustic Guitar]                                                                                       |
                                                                                                        |
e|-3-----------3---3---3--|-3-----------3---3---3--|-1-----------1---1---1--|-1-----------1---1---1--|  |
B|-0-----------0---0---0--|-0-----------0---0---0--|-0-----------0---0---0--|-0-----------0---0---0--|  |
G|-0-----------0---0---0--|-0-----------0---0---0--|-0-----------0---0---0--|-0-----------0---0---0--|  |
D|-0-----------0---0---0--|-0-----------0---0---0--|-0-----------0---0---0--|-0-----------0---0---0--|  |
A|-2-----------2---2---2--|-2-----------2---2---2--|-2-----------2---2---2--|-2-----------2---2---2--| /
E|-3-----------3---3---3--|-3-----------3---3---3--|-3-----------3---3---3--|-3-----------3---3---3--|/

   say                                                               Had      noth   -ing     to      



[Piano arranged for Guitar]

e|-0----------------------|-0----------------------|-0----------------------|-0---------------3------|\
B|-1----------------------|-1----------------------|-1----------------------|-1---------------0------| \
G|-0----------------------|-0----------------------|-0----------------------|-0---------------0------|  |
D|-2----------------------|-2----------------------|-2----------------------|-0---------------0------|  |
A|-3----------------------|-3----------------------|-3----------------------|-2---------------2------|  |
E|------------------------|------------------------|------------------------|-----------------3------|  |
                                                                                                        |
[Acoustic Guitar]                                                                                       |
                                                                                                        |
e|-0-----------0---0---0--|-0-----------0---0---0--|------------------------|------------------------|  |
B|-1-----------1---1---1--|-1-----------1---1---1--|------------------------|------------------------|  |
G|-0-----------0---0---0--|-0-----------0---0---0--|------------------------|------------------------|  |
D|-2-----------2---2---2--|-2-----------2---2---2--|------------------------|------------------------|  |
A|-3-----------3---3---3--|-3-----------3---3---3--|------------------------|------------------------|  |
E|------------------------|------------------------|------------------------|------------------------|  |
                                                                                                        |
[Electric Guitar]                                                                                       |
                                                                                                        |
e|------------------------|------------------------|------------------------|------------------------|  |
B|------------------------|------------------------|------------------------|------------------------|  |
G|------------------------|------------------------|------------------------|------------------------|  |
D|------------------------|------------------------|------------------------|------------------------|  |
A|------------------------|------------------------|/3~~~~~~~~~~~~~~~~~~~~~~|-2~~~~~~~~~~~~~---------| /
E|------------------------|------------------------|------------------------|-----------------3~~~~~-|/

   lose




[INSTRUMENTAL BREAK]

[Piano arranged for Guitar]

e|-0-------0-------0------|-0-------0-------0------|-0-------0-------0------|-0-------0-------0------|\
B|-1-------1-------1------|-1-------1-------1------|-1-------1-------1------|-1-------1-------1------| \
G|-2-------2-------2------|-2-------2-------2------|-2-------2-------2------|-2-------2-------2------|  |
D|-2-------2-------2------|-2-------2-------2------|-2-------2-------2------|-2-------2-------2------|  |
A|-0-------0-------0------|-0-------0-------0------|-0-------0-------0------|-0-------0-------0------|  |
E|------------------------|------------------------|------------------------|------------------------|  |
                                                                                                        |
[Electric Guitar]                                                                                       |
                                                                                                        |
e|------------------------|------------------------|------------------------|------------------------|  |
B|------------------------|------------------------|------------------------|------------------------|  |
G|------------------------|------------------------|------------------------|------------------------|  |
D|------------------------|------------------------|------------------------|------------------------|  |
A|------------------------|-----------------3------|------------------------|-----------------3----3h| /
E|-5~~~~~~~~~~~~~~~~~~~~--|-0-------3--------------|-5~~~~~~~~~~~~~~~~~~~~--|-0-------3--------------|/



[Piano arranged for Guitar]

e|-1-------1-------1------|-1-------1-------1------|-1-------1-------1------|-1-------1-------1------|\
B|-3-------3-------3------|-3-------3-------3------|-3-------3-------3------|-3-------3-------3------| \
G|-2-------2-------2------|-2-------2-------2------|-2-------2-------2------|-2-------2-------2------|  |
D|-0-------0-------0------|-0-------0-------0------|-0-------0-------0------|-0-------0-------0------|  |  
A|-0-------0-------0------|-0-------0-------0------|-0-------0-------0------|-0-------0-------0------|  |
E|------------------------|------------------------|------------------------|------------------------|  |
                                                                                                        |
[Electric Guitar]                                                                                       |
                                                                                                        |
e|------------------------|------------------------|------------------------|------------------------|  |
B|------------------------|------------------------|------------------------|------------------------|  |
G|------------------------|------------------------|------------------------|------------------------|  |
D|------------------------|------------------------|------------------------|------------------------|  |
A|-5~~~~~~~~~~~~~~~~~~~~~~|-0-------3------/7------|-5~~~~~~~~~~~~~~~~~~~~~-|/7-------5-------3------| /
E|------------------------|------------------------|------------------------|------------------------|/  



[Piano arranged for Guitar]

e|-3-------3-------3------|-3-------3-------3------|-3-------3-------3------|-3-------3-------3------|\
B|-0-------0-------0------|-0-------0-------0------|-0-------0-------0------|-0-------0-------0------| \
G|-0-------0-------0------|-0-------0-------0------|-0-------0-------0------|-0-------0-------0------|  |
D|-0-------0-------0------|-0-------0-------0------|-0-------0-------0------|-0-------0-------0------|  |
A|-2-------2-------2------|-2-------2-------2------|-2-------2-------2------|-2-------2-------2------|  |
E|-3-------3-------3------|-3-------3-------3------|-3-------3-------3------|-3-------3-------3------|  |
                                                                                                        |
[Electric Guitar]                                                                                       |
                                                                                                        |
e|------------------------|------------------------|------------------------|------------------------|  |
B|------------------------|------------------------|------------------------|------------------------|  |
G|------------------------|------------------------|------------------------|------------------------|  |
D|------------------------|------------------------|------------------------|------------------------|  |
A|------------------------|------------------------|-3~~~~~~~~~~~~~~~~~-----|------------------------| /
E|-3~~~~~~~~~~~~~~~~~~~~--|-0-------3-------5------|------------------------|-0-------3-------3------|/



[Piano arranged for Guitar]

e|-0-------0-------0------|-0-------0-------0------|-0-------0-------0------|-0-------0-------3------|\
B|-1-------1-------1------|-1-------1-------1------|-1-------1-------1------|-1-------1-------0------| \
G|-2-------2-------2------|-2-------2-------2------|-0-------0-------0------|-0-------0-------0------|  |
D|-2-------2-------2------|-2-------2-------2------|-2-------2-------2------|-0-------0-------0------|  |
A|-0-------0-------0------|-0-------0-------0------|-3-------3-------3------|-2-------2-------2------|  |
E|------------------------|------------------------|------------------------|-----------------3------|  |
                                                                                                        |
[Electric Guitar]                                                                                       |
                                                                                                        |
e|------------------------|------------------------|------------------------|------------------------|  |
B|------------------------|------------------------|------------------------|------------------------|  |
G|------------------------|------------------------|------------------------|------------------------|  |
D|------------------------|------------------------|------------------------|------------------------|  |
A|------------------------|------------------------|/3~~~~~~~~~~~~~~~~~~~~--|-2~~~~~~~~~~~~~---------| /
E|-5~~~~~~~~~~~~~~~~~~~~--|------------------------|------------------------|-----------------3~~~~~-|/

                                                                                              Now



[Piano arranged for Guitar]

e|-0-------0-------0------|-0-------0-------0------|-0-------0-------0------|-0-------0-------0------|\
B|-1-------1-------1------|-1-------1-------1------|-1-------1-------1------|-1-------1-------1------| \
G|-2-------2-------2------|-2-------2-------2------|-2-------2-------2------|-2-------2-------2------|  |
D|-2-------2-------2------|-2-------2-------2------|-2-------2-------2------|-2-------2-------2------|  |
A|-0-------0-------0------|-0-------0-------0------|-0-------0-------0------|-0-------0-------0------|  |
E|------------------------|------------------------|------------------------|------------------------|  |
                                                                                                        |
[Electric Guitar]                                                                                       |
                                                                                                        |
e|------------------------|------------------------|------------------------|------------------------|  |
B|------------------------|------------------------|------------------------|------------------------|  |
G|------------------------|------------------------|------------------------|------------------------|  |
D|------------------------|------------------------|------------------------|------------------------|  |
A|------------------------|-----------------3------|------------------------|-----------------3----3h| /
E|-5~~~~~~~~~~~~~~~~~~~~--|-0-------3--------------|-5~~~~~~~~~~~~~~~~~~~~--|-0-------3--------------|/

   pick    up      and      pack    up      the      place   you     were     pink            and



[Piano arranged for Guitar]

e|-1-------1-------1------|-1-------1-------1------|-1-------1-------1------|-1-------1-------1------|\
B|-3-------3-------3------|-3-------3-------3------|-3-------3-------3------|-3-------3-------3------| \
G|-2-------2-------2------|-2-------2-------2------|-2-------2-------2------|-2-------2-------2------|  |
D|-0-------0-------0------|-0-------0-------0------|-0-------0-------0------|-0-------0-------0------|  |  
A|-0-------0-------0------|-0-------0-------0------|-0-------0-------0------|-0-------0-------0------|  |
E|------------------------|------------------------|------------------------|------------------------|  |
                                                                                                        |
[Electric Guitar]                                                                                       |
                                                                                                        |
e|------------------------|------------------------|------------------------|------------------------|  |
B|------------------------|------------------------|------------------------|------------------------|  |
G|------------------------|------------------------|------------------------|------------------------|  |
D|------------------------|------------------------|------------------------|------------------------|  |
A|-5~~~~~~~~~~~~~~~~~~~~~~|-0-------3------/7------|-5~~~~~~~~~~~~~~~~~~~~~-|/7-------5-------3------| /
E|------------------------|------------------------|------------------------|------------------------|/

   fall   -ing     a       -round



[Piano arranged for Guitar]

e|-3-------3-------3------|-3-------3-------3------|-3-------3-------3------|-3-------3-------3------|\
B|-0-------0-------0------|-0-------0-------0------|-0-------0-------0------|-0-------0-------0------| \
G|-0-------0-------0------|-0-------0-------0------|-0-------0-------0------|-0-------0-------0------|  |
D|-0-------0-------0------|-0-------0-------0------|-0-------0-------0------|-0-------0-------0------|  |
A|-2-------2-------2------|-2-------2-------2------|-2-------2-------2------|-2-------2-------2------|  |
E|-3-------3-------3------|-3-------3-------3------|-3-------3-------3------|-3-------3-------3------|  |
                                                                                                        |
[Electric Guitar]                                                                                       |
                                                                                                        |
e|------------------------|------------------------|------------------------|------------------------|  |
B|------------------------|------------------------|------------------------|------------------------|  |
G|------------------------|------------------------|------------------------|------------------------|  |
D|------------------------|------------------------|------------------------|------------------------|  |
A|------------------------|------------------------|-3~~~~~~~~~~~~~~~~~-----|------------------------| /
E|-3~~~~~~~~~~~~~~~~~~~~--|-0-------3-------5------|------------------------|-0-------3-------3------|/

   Drip   -ing     and      crawl  -ing     and      claw   -ing     in      -side            You're



[Piano arranged for Guitar]

e|-0-------0-------0------|-0-------0-------0------|-0-------0-------0------|-0-------0-------3------|\
B|-1-------1-------1------|-1-------1-------1------|-1-------1-------1------|-1-------1-------0------| \
G|-2-------2-------2------|-2-------2-------2------|-0-------0-------0------|-0-------0-------0------|  |
D|-2-------2-------2------|-2-------2-------2------|-2-------2-------2------|-0-------0-------0------|  |
A|-0-------0-------0------|-0-------0-------0------|-3-------3-------3------|-2-------2-------2------|  |
E|------------------------|------------------------|------------------------|-----------------3------|  |
                                                                                                        |
[Electric Guitar]                                                                                       |
                                                                                                        |
e|------------------------|------------------------|------------------------|------------------------|  |
B|------------------------|------------------------|------------------------|------------------------|  |
G|------------------------|------------------------|------------------------|------------------------|  |
D|------------------------|------------------------|------------------------|------------------------|  |
A|------------------------|------------------------|/3~~~~~~~~~~~~~~~~~~~~--|-2~~~~~~~~~~~~~---------| /
E|-5~~~~~~~~~~~~~~~~~~~~--|------------------------|------------------------|-----------------3~~~~~-|/

   miss   -ing     some     sound



[Piano arranged for Guitar]

e|-0-------0-------0------|-0-------0-------0------|-0-------0-------0------|-0-------0-------0------|\
B|-1-------1-------1------|-1-------1-------1------|-1-------1-------1------|-1-------1-------1------| \
G|-2-------2-------2------|-2-------2-------2------|-2-------2-------2------|-2-------2-------2------|  |
D|-2-------2-------2------|-2-------2-------2------|-2-------2-------2------|-2-------2-------2------|  |
A|-0-------0-------0------|-0-------0-------0------|-0-------0-------0------|-0-------0-------0------|  |
E|------------------------|------------------------|------------------------|------------------------|  |
                                                                                                        |
[Electric Guitar]                                                                                       |
                                                                                                        |
e|------------------------|------------------------|------------------------|------------------------|  |
B|------------------------|------------------------|------------------------|------------------------|  |
G|------------------------|------------------------|------------------------|------------------------|  |
D|------------------------|------------------------|------------------------|------------------------|  |
A|------------------------|-----------------3------|------------------------|-----------------3----3h| /
E|-5~~~~~~~~~~~~~~~~~~~~--|-0-------3--------------|-5~~~~~~~~~~~~~~~~~~~~--|-0-------3--------------|/

   The     ones    that     float   carry   and      dance   a      -bout     time            and



[Piano arranged for Guitar]

e|-1-------1-------1------|-1-------1-------1------|-1-------1-------1------|-1-------1-------1------|\
B|-3-------3-------3------|-3-------3-------3------|-3-------3-------3------|-3-------3-------3------| \
G|-2-------2-------2------|-2-------2-------2------|-2-------2-------2------|-2-------2-------2------|  |
D|-0-------0-------0------|-0-------0-------0------|-0-------0-------0------|-0-------0-------0------|  |  
A|-0-------0-------0------|-0-------0-------0------|-0-------0-------0------|-0-------0-------0------|  |
E|------------------------|------------------------|------------------------|------------------------|  |
                                                                                                        |
[Electric Guitar]                                                                                       |
                                                                                                        |
e|------------------------|------------------------|------------------------|------------------------|  |
B|------------------------|------------------------|------------------------|------------------------|  |
G|------------------------|------------------------|------------------------|------------------------|  |
D|------------------------|------------------------|------------------------|------------------------|  |
A|-5~~~~~~~~~~~~~~~~~~~~~~|-0-------3------/7------|-5~~~~~~~~~~~~~~~~~~~~~-|/7-------5-------3------| /
E|------------------------|------------------------|------------------------|------------------------|/

   space   that    it       lends



[Piano arranged for Guitar]

e|-3-------3-------3------|-3-------3-------3------|-3-------3-------3------|-3-------3-------3------|\
B|-0-------0-------0------|-0-------0-------0------|-0-------0-------0------|-0-------0-------0------| \
G|-0-------0-------0------|-0-------0-------0------|-0-------0-------0------|-0-------0-------0------|  |
D|-0-------0-------0------|-0-------0-------0------|-0-------0-------0------|-0-------0-------0------|  |
A|-2-------2-------2------|-2-------2-------2------|-2-------2-------2------|-2-------2-------2------|  |
E|-3-------3-------3------|-3-------3-------3------|-3-------3-------3------|-3-------3-------3------|  |
                                                                                                        |
[Electric Guitar]                                                                                       |
                                                                                                        |
e|------------------------|------------------------|------------------------|------------------------|  |
B|------------------------|------------------------|------------------------|------------------------|  |
G|------------------------|------------------------|------------------------|------------------------|  |
D|------------------------|------------------------|------------------------|------------------------|  |
A|------------------------|------------------------|-3~~~~~~~~~~~~~~~~~-----|------------------------| /
E|-3~~~~~~~~~~~~~~~~~~~~--|-0-------3-------5------|------------------------|-0-------3-------3------|/

   Room    to      be       free    like    the      sun     and     the      moon



[Piano arranged for Guitar]

e|-0-------0-------0------|-0-------0-------0------|-0-------0-------0------|-0-------0-------3------|\
B|-1-------1-------1------|-1-------1-------1------|-1-------1-------1------|-1-------1-------0------| \
G|-2-------2-------2------|-2-------2-------2------|-0-------0-------0------|-0-------0-------0------|  |
D|-2-------2-------2------|-2-------2-------2------|-2-------2-------2------|-0-------0-------0------|  |
A|-0-------0-------0------|-0-------0-------0------|-3-------3-------3------|-2-------2-------2------|  |
E|------------------------|------------------------|------------------------|-----------------3------|  |
                                                                                                        |
[Electric Guitar]                                                                                       |
                                                                                                        |
e|------------------------|------------------------|------------------------|------------------------|  |
B|------------------------|------------------------|------------------------|------------------------|  |
G|------------------------|------------------------|------------------------|------------------------|  |
D|------------------------|------------------------|------------------------|------------------------|  |
A|------------------------|------------------------|/3~~~~~~~~~~~~~~~~~~~~--|-2~~~~~~~~~~~~~---------| /
E|-5~~~~~~~~~~~~~~~~~~~~--|------------------------|------------------------|-----------------3~~~~~-|/

   Save    for     the      sounds




[CHORUS]

[Organ arranged for Guitar]

e|-0----------------------|-0----------------------|-0----------------------|-0----------------------|\
B|-1----------------------|-1----------------------|-0----------------------|-0----------------------| \
G|-2----------------------|-2----------------------|-1----------------------|-1----------------------|  |
D|-2----------------------|-2----------------------|-2----------------------|-2----------------------|  |
A|-0----------------------|-0----------------------|-2----------------------|-2----------------------|  |
E|------------------------|------------------------|-0----------------------|-0----------------------|  |
                                                                                                        |
[Acoustic Guitar]                                                                                       |
                                                                                                        |
e|-0-----------0---0---0--|-0-----------0---0---0--|-0-----------0---0---0--|-0-----------0---0---0--|  |
B|-1-----------1---1---1--|-1-----------1---1---1--|-0-----------0---0---0--|-0-----------0---0---0--|  |
G|-2-----------2---2---2--|-2-----------2---2---2--|-1-----------1---1---1--|-1-----------1---1---1--|  |
D|-2-----------2---2---2--|-2-----------2---2---2--|-2-----------2---2---2--|-2-----------2---2---2--|  |
A|-0-----------0---0---0--|-0-----------0---0---0--|-2-----------2---2---2--|-2-----------2---2---2--|  |
E|------------------------|------------------------|-0-----------0---0---0--|-0-----------0---0---0--|  |
                                                                                                        |
[Electric Guitar]                                                                                       |
                                                                                                        |
e|------------------------|------------------------|------------------------|------------------------|  |
B|------------------------|------------------------|------------------------|------------------------|  |
G|------------------------|------------------------|------------------------|------------------------|  |
D|------------------------|------------------------|------------------------|------------------------|  |
A|------------------------|------------------------|------------------------|------------------------| /
E|-5~~~~~~~~~~~~~~~~~~~~--|------------------------|------------------------|------------------------|/

                            Take    from    the      air                      Take    to      the 



[Organ arranged for Guitar]

e|-1----------------------|-1----------------------|-0----------------------|-0----------------------|\
B|-1----------------------|-1----------------------|-1----------------------|-1----------------------| \
G|-2----------------------|-2----------------------|-0----------------------|-0----------------------|  |
D|-3----------------------|-3----------------------|-2----------------------|-0----------------------|  |
A|-3----------------------|-3----------------------|-3----------------------|-2----------------------|  |
E|-1----------------------|-1----------------------|------------------------|------------------------|  |
                                                                                                        |
[Acoustic Guitar]                                                                                       |
                                                                                                        |
e|-1-----------1---1---1--|-1-----------1---1---1--|-0-----------0---0---0--|-0-----------0---0---0--|  |
B|-1-----------1---1---1--|-1-----------1---1---1--|-1-----------1---1---1--|-1-----------1---1---1--|  |
G|-2-----------2---2---2--|-2-----------2---2---2--|-0-----------0---0---0--|-0-----------0---0---0--|  |
D|-3-----------3---3---3--|-3-----------3---3---3--|-2-----------2---2---2--|-0-----------0---0---0--|  |
A|-3-----------3---3---3--|-3-----------3---3---3--|-3-----------3---3---3--|-2-----------2---2---2--| /
E|-1-----------1---1---1--|-1-----------1---1---1--|------------------------|------------------------|/

   streets                  And     I



[Organ arranged for Guitar]

e|-0----------------------|-0----------------------|-0----------------------|-0----------------------|\
B|-1----------------------|-1----------------------|-0----------------------|-0----------------------| \
G|-2----------------------|-2----------------------|-1----------------------|-1----------------------|  |
D|-2----------------------|-2----------------------|-2----------------------|-2----------------------|  |
A|-0----------------------|-0----------------------|-2----------------------|-2----------------------|  |
E|------------------------|------------------------|-0----------------------|-0----------------------|  |
                                                                                                        |
[Acoustic Guitar]                                                                                       |
                                                                                                        |
e|-0-----------0---0---0--|-0-----------0---0---0--|-0-----------0---0---0--|-0-----------0---0---0--|  |
B|-1-----------1---1---1--|-1-----------1---1---1--|-0-----------0---0---0--|-0-----------0---0---0--|  |
G|-2-----------2---2---2--|-2-----------2---2---2--|-1-----------1---1---1--|-1-----------1---1---1--|  |
D|-2-----------2---2---2--|-2-----------2---2---2--|-2-----------2---2---2--|-2-----------2---2---2--|  |
A|-0-----------0---0---0--|-0-----------0---0---0--|-2-----------2---2---2--|-2-----------2---2---2--| /
E|------------------------|------------------------|-0-----------0---0---0--|-0-----------0---0---0--|/

                            Take    from    the      air                      Take    to      the 



[Organ arranged for Guitar]

e|-1----------------------|-1----------------------|-0----------------------|-0----------------------|\
B|-1----------------------|-1----------------------|-1----------------------|-1----------------------| \
G|-2----------------------|-2----------------------|-0----------------------|-0----------------------|  |
D|-3----------------------|-3----------------------|-2----------------------|-0----------------------|  |
A|-3----------------------|-3----------------------|-3----------------------|-2----------------------|  |
E|-1----------------------|-1----------------------|------------------------|------------------------|  |
                                                                                                        |
[Acoustic Guitar]                                                                                       |
                                                                                                        |
e|-1-----------1---1---1--|-1-----------1---1---1--|-0-----------0---0---0--|-0-----------0---0---0--|  |
B|-1-----------1---1---1--|-1-----------1---1---1--|-1-----------1---1---1--|-1-----------1---1---1--|  |
G|-2-----------2---2---2--|-2-----------2---2---2--|-0-----------0---0---0--|-0-----------0---0---0--|  |
D|-3-----------3---3---3--|-3-----------3---3---3--|-2-----------2---2---2--|-0-----------0---0---0--|  |
A|-3-----------3---3---3--|-3-----------3---3---3--|-3-----------3---3---3--|-2-----------2---2---2--| /
E|-1-----------1---1---1--|-1-----------1---1---1--|------------------------|------------------------|/

   streets                  And     I



[Organ arranged for Guitar]

e|-0----------------------|-0----------------------|-0----------------------|-0----------------------|\
B|-1----------------------|-1----------------------|-0----------------------|-0----------------------| \
G|-2----------------------|-2----------------------|-1----------------------|-1----------------------|  |
D|-2----------------------|-2----------------------|-2----------------------|-2----------------------|  |
A|-0----------------------|-0----------------------|-2----------------------|-2----------------------|  |
E|------------------------|------------------------|-0----------------------|-0----------------------|  |
                                                                                                        |
[Acoustic Guitar]                                                                                       |
                                                                                                        |
e|-0-----------0---0---0--|-0-----------0---0---0--|-0-----------0---0---0--|-0-----------0---0---0--|  |
B|-1-----------1---1---1--|-1-----------1---1---1--|-0-----------0---0---0--|-0-----------0---0---0--|  |
G|-2-----------2---2---2--|-2-----------2---2---2--|-1-----------1---1---1--|-1-----------1---1---1--|  |
D|-2-----------2---2---2--|-2-----------2---2---2--|-2-----------2---2---2--|-2-----------2---2---2--|  |
A|-0-----------0---0---0--|-0-----------0---0---0--|-2-----------2---2---2--|-2-----------2---2---2--|  |
E|------------------------|------------------------|-0-----------0---0---0--|-0-----------0---0---0--|  |
                                                                                                        |
[Electric Guitar]                                                                                       |
                                                                                                        |
e|------------------------|------------------------|------------------------|------------------------|  |
B|------------------------|------------------------|------------------------|------------------------|  |
G|---------------------5--|-7b(9)------------------|---------------------5--|-7b(9)------------------|  |
D|-7-------------5--7-----|---------7-------5------|-7-------------5--7-----|---------7-------5------|  |
A|------------------------|------------------------|------------------------|------------------------| /
E|------------------------|------------------------|------------------------|------------------------|/

                            Take    from    the      air                      Take    to      the 



[Organ arranged for Guitar]

e|-1----------------------|-1----------------------|-0----------------------|-0----------------------|\
B|-1----------------------|-1----------------------|-1----------------------|-1----------------------| \
G|-2----------------------|-2----------------------|-0----------------------|-0----------------------|  |
D|-3----------------------|-3----------------------|-2----------------------|-0----------------------|  |
A|-3----------------------|-3----------------------|-3----------------------|-2----------------------|  |
E|-1----------------------|-1----------------------|------------------------|------------------------|  |
                                                                                                        |
[Acoustic Guitar]                                                                                       |
                                                                                                        |
e|-1-----------1---1---1--|-1-----------1---1---1--|-0-----------0---0---0--|-0-----------0---0---0--|  |
B|-1-----------1---1---1--|-1-----------1---1---1--|-1-----------1---1---1--|-1-----------1---1---1--|  |
G|-2-----------2---2---2--|-2-----------2---2---2--|-0-----------0---0---0--|-0-----------0---0---0--|  |
D|-3-----------3---3---3--|-3-----------3---3---3--|-2-----------2---2---2--|-0-----------0---0---0--|  |
A|-3-----------3---3---3--|-3-----------3---3---3--|-3-----------3---3---3--|-2-----------2---2---2--|  |
E|-1-----------1---1---1--|-1-----------1---1---1--|------------------------|------------------------|  |
                                                                                                        |
[Electric Guitar]                                                                                       |
                                                                                                        |
e|------------------------|------------------------|------------------------|------------------------|  |
B|------------------------|------------------------|------------------------|------------------------|  |
G|---------------------5--|-7b(9)------------------|------------------------|------------------------|  |
D|-7-------------5--7-----|---------7-------5------|-7b(9)r7----------------|------------------------|  |
A|------------------------|------------------------|------------------------|------------------------| /
E|------------------------|------------------------|------------------------|------------------------|/

   streets                  And     I



[Organ arranged for Guitar]

e|-0----------------------|-0----------------------|-0----------------------|-0----------------------|\
B|-1----------------------|-1----------------------|-0----------------------|-0----------------------| \
G|-2----------------------|-2----------------------|-1----------------------|-1----------------------|  |
D|-2----------------------|-2----------------------|-2----------------------|-2----------------------|  |
A|-0----------------------|-0----------------------|-2----------------------|-2----------------------|  |
E|------------------------|------------------------|-0----------------------|-0----------------------|  |
                                                                                                        |
[Acoustic Guitar]                                                                                       |
                                                                                                        |
e|-0-----------0---0---0--|-0-----------0---0---0--|-0-----------0---0---0--|-0-----------0---0---0--|  |
B|-1-----------1---1---1--|-1-----------1---1---1--|-0-----------0---0---0--|-0-----------0---0---0--|  |
G|-2-----------2---2---2--|-2-----------2---2---2--|-1-----------1---1---1--|-1-----------1---1---1--|  |
D|-2-----------2---2---2--|-2-----------2---2---2--|-2-----------2---2---2--|-2-----------2---2---2--|  |
A|-0-----------0---0---0--|-0-----------0---0---0--|-2-----------2---2---2--|-2-----------2---2---2--|  |
E|------------------------|------------------------|-0-----------0---0---0--|-0-----------0---0---0--|  |
                                                                                                        |
[Electric Guitar]                                                                                       |
                                                                                                        |
e|------------------------|------------------------|------------------------|------------------------|  |
B|------------------------|------------------------|------------------------|------------------------|  |
G|---------------------5--|-7b(9)------------------|---------------------5--|-7b(9)------------------|  |
D|-7-------------5--7-----|---------7-------5------|-7-------------5--7-----|---------7-------5------|  |
A|------------------------|------------------------|------------------------|------------------------| /
E|------------------------|------------------------|------------------------|------------------------|/

                            Take    from    the      air                      Take    to      the 



[Organ arranged for Guitar]

e|-1----------------------|-1----------------------|-0----------------------|-0----------------------|\
B|-1----------------------|-1----------------------|-1----------------------|-1----------------------| \
G|-2----------------------|-2----------------------|-0----------------------|-0----------------------|  |
D|-3----------------------|-3----------------------|-2----------------------|-0----------------------|  |
A|-3----------------------|-3----------------------|-3----------------------|-2----------------------|  |
E|-1----------------------|-1----------------------|------------------------|------------------------|  |
                                                                                                        |
[Acoustic Guitar]                                                                                       |
                                                                                                        |
e|-1-----------1---1---1--|-1-----------1---1---1--|-0-----------0---0---0--|-0-----------0---0---0--|  |
B|-1-----------1---1---1--|-1-----------1---1---1--|-1-----------1---1---1--|-1-----------1---1---1--|  |
G|-2-----------2---2---2--|-2-----------2---2---2--|-0-----------0---0---0--|-0-----------0---0---0--|  |
D|-3-----------3---3---3--|-3-----------3---3---3--|-2-----------2---2---2--|-0-----------0---0---0--|  |
A|-3-----------3---3---3--|-3-----------3---3---3--|-3-----------3---3---3--|-2-----------2---2---2--|  |
E|-1-----------1---1---1--|-1-----------1---1---1--|------------------------|------------------------|  |
                                                                                                        |
[Electric Guitar]                                                                                       |
                                                                                                        |
e|------------------------|------------------------|------------------------|------------------------|  |
B|------------------------|------------------------|------------------------|------------------------|  |
G|---------------------5--|-7b(9)------------------|------------------------|------------------------|  |
D|-7-------------5--7-----|---------7-------5------|-7b(9)r7----------------|------------------------|  |
A|------------------------|------------------------|------------------------|------------------------| /
E|------------------------|------------------------|------------------------|------------------------|/

   streets                  And     I



[BRIDGE]

[Piano arranged for Guitar]

e|-0----------------------|-0----------------------|-1----------------------|-1----------------------|\
B|-1----------------------|-0----------------------|-1----------------------|-1----------------------| \
G|-2----------------------|-1----------------------|-2----------------------|-2----------------------|  |
D|-2----------------------|-2----------------------|-3----------------------|-3----------------------|  |
A|-0----------------------|-2----------------------|-3----------------------|-3----------------------|  |
E|------------------------|-0----------------------|-1----------------------|-1----------------------|  |
                                                                                                        |
[Acoustic Guitar]                                                                                       |
                                                                                                        |
e|-0-------0---0---0---0--|-0-------0---0---0---0--|-1-------1-------1------|-1-------1-------1------|  |
B|-1-------1---1---1---1--|-0-------0---0---0---0--|-1-------1-------1------|-1-------1-------1------|  |
G|-2-------2---2---2---2--|-1-------1---1---1---1--|-2-------2-------2------|-2-------2-------2------|  |
D|-2-------2---2---2---2--|-2-------2---2---2---2--|-3-------3-------3------|-3-------3-------3------|  |
A|-0-------0---0---0---0--|-2-------2---2---2---2--|-3-------3-------3------|-3-------3-------3------|  |
E|------------------------|-0-------0---0---0---0--|-1-------1-------1------|-1-------1-------1------|  |
                                                                                                        |
[Electric Guitar]                                                                                       |
                                                                                                        |
e|------------------------|------------------------|------------------------|------------------------|  |
B|------------------------|------------------------|------------------------|------------------------|  |
G|------------------------|------------------------|------------------------|------------------------|  |
D|------------------------|------------------------|------------------------|------------------------|  |
A|------------------------|------------------------|------------------------|------------------------| /
E|-5~~~~~~~~~~~~~~~~~~~~--|-0----------------------|-1~~~~~~~~~~~~~~~~~~~~~-|------------------------|/



[Piano arranged for Guitar]

e|-0----------------------|-0----------------------|-1----------------------|-1----------------------|\
B|-1----------------------|-0----------------------|-1----------------------|-1----------------------| \
G|-2----------------------|-1----------------------|-2----------------------|-2----------------------|  |
D|-2----------------------|-2----------------------|-3----------------------|-3----------------------|  |
A|-0----------------------|-2----------------------|-3----------------------|-3----------------------|  |
E|------------------------|-0----------------------|-1----------------------|-1----------------------|  |
                                                                                                        |
[Acoustic Guitar]                                                                                       |
                                                                                                        |
e|-0-------0---0---0---0--|-0-------0---0---0---0--|-1-------1-------1------|-1-------1-------1------|  |
B|-1-------1---1---1---1--|-0-------0---0---0---0--|-1-------1-------1------|-1-------1-------1------|  |
G|-2-------2---2---2---2--|-1-------1---1---1---1--|-2-------2-------2------|-2-------2-------2------|  |
D|-2-------2---2---2---2--|-2-------2---2---2---2--|-3-------3-------3------|-3-------3-------3------|  |
A|-0-------0---0---0---0--|-2-------2---2---2---2--|-3-------3-------3------|-3-------3-------3------|  |
E|------------------------|-0-------0---0---0---0--|-1-------1-------1------|-1-------1-------1------|  |
                                                                                                        |
[Electric Guitar]                                                                                       |
                                                                                                        |
e|------------------------|------------------------|------------------------|------------------------|  |
B|------------------------|------------------------|------------------------|------------------------|  |
G|------------------------|------------------------|------------------------|------------------------|  |
D|------------------------|------------------------|------------------------|------------------------|  |
A|------------------------|------------------------|------------------------|------------------------| /
E|-5~~~~~~~~~~~~~~~~~~~~--|-0----------------------|-1~~~~~~~~~~~~~~~~~~~~~-|------------------------|/



[Piano arranged for Guitar]

e|-0----------------------|-0----------------------|-1----------------------|-1----------------------|\
B|-1----------------------|-0----------------------|-1----------------------|-1----------------------| \
G|-2----------------------|-1----------------------|-2----------------------|-2----------------------|  |
D|-2----------------------|-2----------------------|-3----------------------|-3----------------------|  |
A|-0----------------------|-2----------------------|-3----------------------|-3----------------------|  |
E|------------------------|-0----------------------|-1----------------------|-1----------------------|  |
                                                                                                        |
[Acoustic Guitar]                                                                                       |
                                                                                                        |
e|-0-------0---0---0---0--|-0-------0---0---0---0--|-1-------1-------1------|-1-------1-------1------|  |
B|-1-------1---1---1---1--|-0-------0---0---0---0--|-1-------1-------1------|-1-------1-------1------|  |
G|-2-------2---2---2---2--|-1-------1---1---1---1--|-2-------2-------2------|-2-------2-------2------|  |
D|-2-------2---2---2---2--|-2-------2---2---2---2--|-3-------3-------3------|-3-------3-------3------|  |
A|-0-------0---0---0---0--|-2-------2---2---2---2--|-3-------3-------3------|-3-------3-------3------|  |
E|------------------------|-0-------0---0---0---0--|-1-------1-------1------|-1-------1-------1------|  |
                                                                                                        |
[Electric Guitar]                                                                                       |
                                                                                                        |
e|------------------------|------------------------|------------------------|------------------------|  |
B|------------------------|------------------------|------------------------|------------------------|  |
G|------------------------|------------------------|------------------------|------------------------|  |
D|------------------------|------------------------|------------------------|------------------------|  |
A|------------------------|------------------------|------------------------|------------------------| /
E|-5~~~~~~~~~~~~~~~~~~~~--|-0----------------------|-1~~~~~~~~~~~~~~~~~~~~~-|------------------------|/



[Piano arranged for Guitar]

e|-0----------------------|-0----------------------|-0----------------------|-0----------------------|\
B|-0----------------------|-0----------------------|-0----------------------|-0----------------------| \
G|-1----------------------|-1----------------------|-1----------------------|-1----------------------|  |
D|-2----------------------|-2----------------------|-2----------------------|-2----------------------|  |
A|-2----------------------|-2----------------------|-2----------------------|-2----------------------|  |
E|-0----------------------|-0----------------------|-0----------------------|-0----------------------|  |
                                                                                                        |
[Acoustic Guitar]                                                                                       |
                                                                                                        |
e|-0-------0-------0------|-0-------0-------0---0--|-0-------0-------0---0--|-0-------0-------0------|  |
B|-0-------0-------0------|-0-------0-------0---0--|-0-------0-------0---0--|-0-------0-------0------|  |
G|-1-------1-------1------|-1-------1-------1---1--|-1-------1-------1---1--|-1-------1-------1------|  |
D|-2-------2-------2------|-2-------2-------2---2--|-2-------2-------2---2--|-2-------2-------2------|  |
A|-2-------2-------2------|-2-------2-------2---2--|-2-------2-------2---2--|-2-------2-------2------|  |
E|-0-------0-------0------|-0-------0-------0---0--|-0-------0-------0---0--|-0-------0-------0------|  |
                                                                                                        |
[Electric Guitar]                                                                                       |
                                                                                                        |
e|------------------------|------------------------|------------------------|------------------------|  |
B|------------------------|------------------------|------------------------|------------------------|  |
G|------------------------|------------------------|------------------------|------------------------|  |
D|------------------------|------------------------|------------------------|------------------------|  |
A|------------------------|------------------------|------------------------|------------------------| /
E|-0----------------------|------------------------|------------------------|------------------------|/

                                                                              We'll   be      re-  



[BREAKDOWN]

[Piano arranged for Guitar]

e|-0----------------------|-0----------------------|-0----------------------|-0----------------------|
B|-1----------------------|-1----------------------|-1----------------------|-1----------------------|
G|-2----------------------|-2----------------------|-2----------------------|-2----------------------|
D|-2----------------------|-2----------------------|-2----------------------|-2----------------------|
A|-0----------------------|-0----------------------|-0----------------------|-0----------------------|
E|------------------------|------------------------|------------------------|------------------------|

   born                                                                       Yeah    we'll


e|-3----------------------|-3----------------------|-3----------------------|-3----------------------|
B|-0----------------------|-0----------------------|-0----------------------|-0----------------------|
G|-0----------------------|-0----------------------|-0----------------------|-0----------------------|
D|-0----------------------|-0----------------------|-0----------------------|-0----------------------|
A|-2----------------------|-2----------------------|-2----------------------|-2----------------------|
E|-3----------------------|-3----------------------|-3----------------------|-3----------------------|

                            Simp   -ly      be       free                     We'll   be      the


e|-1----------------------|-1----------------------|-1----------------------|-1----------------------|
B|-3----------------------|-3----------------------|-3----------------------|-3----------------------|
G|-2----------------------|-2----------------------|-2----------------------|-2----------------------|
D|-0----------------------|-0----------------------|-0----------------------|-0----------------------|
A|-0----------------------|-0----------------------|-0----------------------|-0----------------------|
E|------------------------|------------------------|------------------------|------------------------|

   colors                                                              That   pour    through the


e|-0----------------------|-0----------------------|-0----------------------|-0----------------------|
B|-1----------------------|-1----------------------|-1----------------------|-1----------------------|
G|-2----------------------|-2----------------------|-2----------------------|-2----------------------|
D|-2----------------------|-2----------------------|-2----------------------|-2----------------------|
A|-0----------------------|-0----------------------|-0----------------------|-0----------------------|
E|------------------------|------------------------|------------------------|------------------------|

   streets                                                                    Find    in      their


e|-0----------------------|-0----------------------|-0----------------------|-0----------------------|
B|-1----------------------|-1----------------------|-1----------------------|-1----------------------|
G|-2----------------------|-2----------------------|-2----------------------|-2----------------------|
D|-2----------------------|-2----------------------|-2----------------------|-2----------------------|
A|-0----------------------|-0----------------------|-0----------------------|-0----------------------|
E|------------------------|------------------------|------------------------|------------------------|

   af     -ter     years                                                      We're   all


e|-3----------------------|-3----------------------|-3----------------------|-3----------------------|
B|-0----------------------|-0----------------------|-0----------------------|-0----------------------|
G|-0----------------------|-0----------------------|-0----------------------|-0----------------------|
D|-0----------------------|-0----------------------|-0----------------------|-0----------------------|
A|-2----------------------|-2----------------------|-2----------------------|-2----------------------|
E|-3----------------------|-3----------------------|-3----------------------|-3----------------------|

                            We're   all              the      same            


e|-1----------------------|-1----------------------|-1----------------------|-1----------------------|
B|-3----------------------|-3----------------------|-3----------------------|-3----------------------|
G|-2----------------------|-2----------------------|-2----------------------|-2----------------------|
D|-0----------------------|-0----------------------|-0----------------------|-0----------------------|
A|-0----------------------|-0----------------------|-0----------------------|-0----------------------|
E|------------------------|------------------------|------------------------|------------------------|

                            We're   all     the      colors

e|-0----------------------|------------------------|------------------------|------------------------|
B|-1----------------------|------------------------|------------------------|------------------------|
G|-2----------------------|------------------------|------------------------|------------------------|
D|-2----------------------|------------------------|------------------------|------------------------|
A|-0----------------------|------------------------|------------------------|------------------------|
E|------------------------|------------------------|------------------------|------------------------|

                            Pour    through the      streets



[Violin Solo]

[Piano arranged for Guitar]

e|-0----------------------|-0----------------------|-0----------------------|-0----------------------|\
B|-1----------------------|-1----------------------|-0----------------------|-0----------------------| \
G|-2----------------------|-2----------------------|-1----------------------|-1----------------------|  |
D|-2----------------------|-2----------------------|-2----------------------|-2----------------------|  |
A|-0----------------------|-0----------------------|-2----------------------|-2----------------------|  |
E|------------------------|------------------------|-0----------------------|-0----------------------|  |
                                                                                                        |
[Acoustic Guitar]                                                                                       |
                                                                                                        |
e|-0-----------0---0---0--|-0-------0-------0------|-0-----------0---0---0--|-0-------0-------0------|  |
B|-1-----------1---1---1--|-1-------1-------1------|-0-----------0---0---0--|-0-------0-------0------|  |
G|-2-----------2---2---2--|-2-------2-------2------|-1-----------1---1---1--|-1-------1-------1------|  |
D|-2-----------0---2---0--|-2-------0-------2------|-2-----------2---2---2--|-2-------2-------2------|  |
A|-0-----------0---0---0--|-0-------0-------0------|-2-----------0---2---0--|-2-------0-------2------| /
E|------------------------|------------------------|-0-----------0---0---0--|-0-------0-------0------|/



[Piano arranged for Guitar]

e|-1----------------------|-1----------------------|-0----------------------|-0----------------------|\
B|-1----------------------|-1----------------------|-1----------------------|-1----------------------| \
G|-2----------------------|-2----------------------|-0----------------------|-0----------------------|  |
D|-3----------------------|-3----------------------|-2----------------------|-0----------------------|  |
A|-3----------------------|-3----------------------|-3----------------------|-2----------------------|  |
E|-1----------------------|-1----------------------|------------------------|------------------------|  |
                                                                                                        |
[Acoustic Guitar]                                                                                       |
                                                                                                        |
e|-1-----------1---1---1--|-1-----------1---1---1--|-0-----------0---0---0--|-0-----------0---0---0--|  |
B|-1-----------1---1---1--|-1-----------1---1---1--|-1-----------1---1---1--|-1-----------1---1---1--|  |
G|-2-----------2---2---2--|-2-----------2---2---2--|-0-----------0---0---0--|-0-----------0---0---0--|  |
D|-3-----------3---3---3--|-3-----------3---3---3--|-2-----------2---2---2--|-0-----------0---0---0--|  |
A|-3-----------3---3---3--|-3-----------3---3---3--|-3-----------3---3---3--|-2-----------2---2---2--| /
E|-1-----------1---1---1--|-1-----------1---1---1--|------------------------|------------------------|/



[Piano arranged for Guitar]

e|-0----------------------|-0----------------------|-0----------------------|-0----------------------|\
B|-1----------------------|-1----------------------|-0----------------------|-0----------------------| \
G|-2----------------------|-2----------------------|-1----------------------|-1----------------------|  |
D|-2----------------------|-2----------------------|-2----------------------|-2----------------------|  |
A|-0----------------------|-0----------------------|-2----------------------|-2----------------------|  |
E|------------------------|------------------------|-0----------------------|-0----------------------|  |
                                                                                                        |
[Acoustic Guitar]                                                                                       |
                                                                                                        |
e|-0-----------0---0---0--|-0-------0-------0------|-0-----------0---0---0--|-0-------0-------0------|  |
B|-1-----------1---1---1--|-1-------1-------1------|-0-----------0---0---0--|-0-------0-------0------|  |
G|-2-----------2---2---2--|-2-------2-------2------|-1-----------1---1---1--|-1-------1-------1------|  |
D|-2-----------0---2---0--|-2-------0-------2------|-2-----------2---2---2--|-2-------2-------2------|  |
A|-0-----------0---0---0--|-0-------0-------0------|-2-----------0---2---0--|-2-------0-------2------| /
E|------------------------|------------------------|-0-----------0---0---0--|-0-------0-------0------|/



[Piano arranged for Guitar]

e|-1----------------------|-1----------------------|-0----------------------|-0----------------------|\
B|-1----------------------|-1----------------------|-1----------------------|-1----------------------| \
G|-2----------------------|-2----------------------|-0----------------------|-0----------------------|  |
D|-3----------------------|-3----------------------|-2----------------------|-0----------------------|  |
A|-3----------------------|-3----------------------|-3----------------------|-2----------------------|  |
E|-1----------------------|-1----------------------|------------------------|------------------------|  |
                                                                                                        |
[Acoustic Guitar]                                                                                       |
                                                                                                        |
e|-1-----------1---1---1--|-1-----------1---1---1--|-0-----------0---0---0--|-0-----------0---0---0--|  |
B|-1-----------1---1---1--|-1-----------1---1---1--|-1-----------1---1---1--|-1-----------1---1---1--|  |
G|-2-----------2---2---2--|-2-----------2---2---2--|-0-----------0---0---0--|-0-----------0---0---0--|  |
D|-3-----------3---3---3--|-3-----------3---3---3--|-2-----------2---2---2--|-0-----------0---0---0--|  |
A|-3-----------3---3---3--|-3-----------3---3---3--|-3-----------3---3---3--|-2-----------2---2---2--| /
E|-1-----------1---1---1--|-1-----------1---1---1--|------------------------|------------------------|/




[CHORUS]

[Piano arranged for Guitar]

e|-0----------------------|-0----------------------|-0----------------------|-0----------------------|\
B|-1----------------------|-1----------------------|-0----------------------|-0----------------------| \
G|-2----------------------|-2----------------------|-1----------------------|-1----------------------|  |
D|-2----------------------|-2----------------------|-2----------------------|-2----------------------|  |
A|-0----------------------|-0----------------------|-2----------------------|-2----------------------|  |
E|------------------------|------------------------|-0----------------------|-0----------------------|  |
                                                                                                        |
[Acoustic Guitar]                                                                                       |
                                                                                                        |
e|-0-----------0---0---0--|-0-------0-------0------|-0-----------0---0---0--|-0-------0-------0------|  |
B|-1-----------1---1---1--|-1-------1-------1------|-0-----------0---0---0--|-0-------0-------0------|  |
G|-2-----------2---2---2--|-2-------2-------2------|-1-----------1---1---1--|-1-------1-------1------|  |
D|-2-----------0---2---0--|-2-------0-------2------|-2-----------2---2---2--|-2-------2-------2------|  |
A|-0-----------0---0---0--|-0-------0-------0------|-2-----------0---2---0--|-2-------0-------2------|  |
E|------------------------|------------------------|-0-----------0---0---0--|-0-------0-------0------|  |
                                                                                                        |
[Electric Guitar]                                                                                       |
                                                                                                        |
e|------------------------|------------------------|------------------------|------------------------|  |
B|------------------------|------------------------|------------------------|------------------------|  |
G|---------------------5--|-7b(9)------------------|---------------------5--|-7b(9)------------------|  |
D|-7-------------5--7-----|---------7-------5------|-7-------------5--7-----|---------7-------5------|  |
A|------------------------|------------------------|------------------------|------------------------| /
E|------------------------|------------------------|------------------------|------------------------|/

                            Take    from    the      air                      Take    to      the 



[Piano arranged for Guitar]

e|-1----------------------|-1----------------------|-0----------------------|-0----------------------|\
B|-1----------------------|-1----------------------|-1----------------------|-1----------------------| \
G|-2----------------------|-2----------------------|-0----------------------|-0----------------------|  |
D|-3----------------------|-3----------------------|-2----------------------|-0----------------------|  |
A|-3----------------------|-3----------------------|-3----------------------|-2----------------------|  |
E|-1----------------------|-1----------------------|------------------------|------------------------|  |
                                                                                                        |
[Acoustic Guitar]                                                                                       |
                                                                                                        |
e|-1-----------1---1---1--|-1-----------1---1---1--|-0-----------0---0---0--|-0-----------0---0---0--|  |
B|-1-----------1---1---1--|-1-----------1---1---1--|-1-----------1---1---1--|-1-----------1---1---1--|  |
G|-2-----------2---2---2--|-2-----------2---2---2--|-0-----------0---0---0--|-0-----------0---0---0--|  |
D|-3-----------3---3---3--|-3-----------3---3---3--|-2-----------2---2---2--|-0-----------0---0---0--|  |
A|-3-----------3---3---3--|-3-----------3---3---3--|-3-----------3---3---3--|-2-----------2---2---2--|  |
E|-1-----------1---1---1--|-1-----------1---1---1--|------------------------|------------------------|  |
                                                                                                        |
[Electric Guitar]                                                                                       |
                                                                                                        |
e|------------------------|------------------------|------------------------|------------------------|  |
B|------------------------|------------------------|------------------------|------------------------|  |
G|---------------------5--|-7b(9)------------------|------------------------|------------------------|  |
D|-7-------------5--7-----|---------7-------5------|-7b(9)r7----------------|------------------------|  |
A|------------------------|------------------------|------------------------|------------------------| /
E|------------------------|------------------------|------------------------|------------------------|/

   streets                  And     I



[Piano arranged for Guitar]

e|-0----------------------|-0----------------------|-0----------------------|-0----------------------|\
B|-1----------------------|-1----------------------|-0----------------------|-0----------------------| \
G|-2----------------------|-2----------------------|-1----------------------|-1----------------------|  |
D|-2----------------------|-2----------------------|-2----------------------|-2----------------------|  |
A|-0----------------------|-0----------------------|-2----------------------|-2----------------------|  |
E|------------------------|------------------------|-0----------------------|-0----------------------|  |
                                                                                                        |
[Acoustic Guitar]                                                                                       |
                                                                                                        |
e|-0-----------0---0---0--|-0-------0-------0------|-0-----------0---0---0--|-0-------0-------0------|  |
B|-1-----------1---1---1--|-1-------1-------1------|-0-----------0---0---0--|-0-------0-------0------|  |
G|-2-----------2---2---2--|-2-------2-------2------|-1-----------1---1---1--|-1-------1-------1------|  |
D|-2-----------0---2---0--|-2-------0-------2------|-2-----------2---2---2--|-2-------2-------2------|  |
A|-0-----------0---0---0--|-0-------0-------0------|-2-----------0---2---0--|-2-------0-------2------|  |
E|------------------------|------------------------|-0-----------0---0---0--|-0-------0-------0------|  |
                                                                                                        |
[Electric Guitar]                                                                                       |
                                                                                                        |
e|------------------------|------------------------|------------------------|------------------------|  |
B|------------------------|------------------------|------------------------|------------------------|  |
G|---------------------5--|-7b(9)------------------|---------------------5--|-7b(9)------------------|  |
D|-7-------------5--7-----|---------7-------5------|-7-------------5--7-----|---------7-------5------|  |
A|------------------------|------------------------|------------------------|------------------------| /
E|------------------------|------------------------|------------------------|------------------------|/

                            Take    from    the      air                      Take    to      the 



[Piano arranged for Guitar]

e|-1----------------------|-1----------------------|-0----------------------|-0----------------------|\
B|-1----------------------|-1----------------------|-1----------------------|-1----------------------| \
G|-2----------------------|-2----------------------|-0----------------------|-0----------------------|  |
D|-3----------------------|-3----------------------|-2----------------------|-0----------------------|  |
A|-3----------------------|-3----------------------|-3----------------------|-2----------------------|  |
E|-1----------------------|-1----------------------|------------------------|------------------------|  |
                                                                                                        |
[Acoustic Guitar]                                                                                       |
                                                                                                        |
e|-1-----------1---1---1--|-1-----------1---1---1--|-0-----------0---0---0--|-0-----------0---0---0--|  |
B|-1-----------1---1---1--|-1-----------1---1---1--|-1-----------1---1---1--|-1-----------1---1---1--|  |
G|-2-----------2---2---2--|-2-----------2---2---2--|-0-----------0---0---0--|-0-----------0---0---0--|  |
D|-3-----------3---3---3--|-3-----------3---3---3--|-2-----------2---2---2--|-0-----------0---0---0--|  |
A|-3-----------3---3---3--|-3-----------3---3---3--|-3-----------3---3---3--|-2-----------2---2---2--|  |
E|-1-----------1---1---1--|-1-----------1---1---1--|------------------------|------------------------|  |
                                                                                                        |
[Electric Guitar]                                                                                       |
                                                                                                        |
e|------------------------|------------------------|------------------------|------------------------|  |
B|------------------------|------------------------|------------------------|------------------------|  |
G|---------------------5--|-7b(9)------------------|------------------------|------------------------|  |
D|-7-------------5--7-----|---------7-------5------|-7b(9)r7----------------|------------------------|  |
A|------------------------|------------------------|------------------------|------------------------| /
E|------------------------|------------------------|------------------------|------------------------|/

   streets                  And     I



[Piano arranged for Guitar]

e|-0----------------------|-0----------------------|-0----------------------|-0----------------------|\
B|-1----------------------|-1----------------------|-0----------------------|-0----------------------| \
G|-2----------------------|-2----------------------|-1----------------------|-1----------------------|  |
D|-2----------------------|-2----------------------|-2----------------------|-2----------------------|  |
A|-0----------------------|-0----------------------|-2----------------------|-2----------------------|  |
E|------------------------|------------------------|-0----------------------|-0----------------------|  |
                                                                                                        |
[Acoustic Guitar]                                                                                       |
                                                                                                        |
e|-0-----------0---0---0--|-0-------0-------0------|-0-----------0---0---0--|-0-------0-------0------|  |
B|-1-----------1---1---1--|-1-------1-------1------|-0-----------0---0---0--|-0-------0-------0------|  |
G|-2-----------2---2---2--|-2-------2-------2------|-1-----------1---1---1--|-1-------1-------1------|  |
D|-2-----------0---2---0--|-2-------0-------2------|-2-----------2---2---2--|-2-------2-------2------|  |
A|-0-----------0---0---0--|-0-------0-------0------|-2-----------0---2---0--|-2-------0-------2------|  |
E|------------------------|------------------------|-0-----------0---0---0--|-0-------0-------0------|  |
                                                                                                        |
[Electric Guitar]                                                                                       |
                                                                                                        |
e|------------------------|------------------------|------------------------|------------------------|  |
B|------------------------|------------------------|------------------------|------------------------|  |
G|---------------------5--|-7b(9)------------------|---------------------5--|-7b(9)------------------|  |
D|-7-------------5--7-----|---------7-------5------|-7-------------5--7-----|---------7-------5------|  |
A|------------------------|------------------------|------------------------|------------------------| /
E|------------------------|------------------------|------------------------|------------------------|/

                            Take    from    the      air                      Take    to      the 



[Piano arranged for Guitar]

e|-1----------------------|-1----------------------|-0----------------------|-0----------------------|\
B|-1----------------------|-1----------------------|-1----------------------|-1----------------------| \
G|-2----------------------|-2----------------------|-0----------------------|-0----------------------|  |
D|-3----------------------|-3----------------------|-2----------------------|-0----------------------|  |
A|-3----------------------|-3----------------------|-3----------------------|-2----------------------|  |
E|-1----------------------|-1----------------------|------------------------|------------------------|  |
                                                                                                        |
[Acoustic Guitar]                                                                                       |
                                                                                                        |
e|-1-----------1---1---1--|-1-----------1---1---1--|-0-----------0---0---0--|-0-----------0---0---0--|  |
B|-1-----------1---1---1--|-1-----------1---1---1--|-1-----------1---1---1--|-1-----------1---1---1--|  |
G|-2-----------2---2---2--|-2-----------2---2---2--|-0-----------0---0---0--|-0-----------0---0---0--|  |
D|-3-----------3---3---3--|-3-----------3---3---3--|-2-----------2---2---2--|-0-----------0---0---0--|  |
A|-3-----------3---3---3--|-3-----------3---3---3--|-3-----------3---3---3--|-2-----------2---2---2--|  |
E|-1-----------1---1---1--|-1-----------1---1---1--|------------------------|------------------------|  |
                                                                                                        |
[Electric Guitar]                                                                                       |
                                                                                                        |
e|------------------------|------------------------|------------------------|------------------------|  |
B|------------------------|------------------------|------------------------|------------------------|  |
G|---------------------5--|-7b(9)------------------|------------------------|------------------------|  |
D|-7-------------5--7-----|---------7-------5------|-7b(9)r7----------------|------------------------|  |
A|------------------------|------------------------|------------------------|------------------------| /
E|------------------------|------------------------|------------------------|------------------------|/

   streets                  And     I



[Piano arranged for Guitar]

e|-0----------------------|-0----------------------|-0----------------------|-0----------------------|\
B|-1----------------------|-1----------------------|-0----------------------|-0----------------------| \
G|-2----------------------|-2----------------------|-1----------------------|-1----------------------|  |
D|-2----------------------|-2----------------------|-2----------------------|-2----------------------|  |
A|-0----------------------|-0----------------------|-2----------------------|-2----------------------|  |
E|------------------------|------------------------|-0----------------------|-0----------------------|  |
                                                                                                        |
[Acoustic Guitar]                                                                                       |
                                                                                                        |
e|-0-----------0---0---0--|-0-------0-------0------|-0-----------0---0---0--|-0-------0-------0------|  |
B|-1-----------1---1---1--|-1-------1-------1------|-0-----------0---0---0--|-0-------0-------0------|  |
G|-2-----------2---2---2--|-2-------2-------2------|-1-----------1---1---1--|-1-------1-------1------|  |
D|-2-----------0---2---0--|-2-------0-------2------|-2-----------2---2---2--|-2-------2-------2------|  |
A|-0-----------0---0---0--|-0-------0-------0------|-2-----------0---2---0--|-2-------0-------2------|  |
E|------------------------|------------------------|-0-----------0---0---0--|-0-------0-------0------|  |
                                                                                                        |
[Electric Guitar]                                                                                       |
                                                                                                        |
e|------------------------|------------------------|------------------------|------------------------|  |
B|------------------------|------------------------|------------------------|------------------------|  |
G|---------------------5--|-7b(9)------------------|---------------------5--|-7b(9)------------------|  |
D|-7-------------5--7-----|---------7-------5------|-7-------------5--7-----|---------7-------5------|  |
A|------------------------|------------------------|------------------------|------------------------| /
E|------------------------|------------------------|------------------------|------------------------|/

                            Take    from    the      air                      Take    to      the 



[Piano arranged for Guitar]

e|-1----------------------|-1----------------------|-0----------------------|-0----------------------|\
B|-1----------------------|-1----------------------|-1----------------------|-1----------------------| \
G|-2----------------------|-2----------------------|-0----------------------|-0----------------------|  |
D|-3----------------------|-3----------------------|-2----------------------|-0----------------------|  |
A|-3----------------------|-3----------------------|-3----------------------|-2----------------------|  |
E|-1----------------------|-1----------------------|------------------------|------------------------|  |
                                                                                                        |
[Acoustic Guitar]                                                                                       |
                                                                                                        |
e|-1-----------1---1---1--|-1-----------1---1---1--|-0-----------0---0---0--|-0-----------0---0---0--|  |
B|-1-----------1---1---1--|-1-----------1---1---1--|-1-----------1---1---1--|-1-----------1---1---1--|  |
G|-2-----------2---2---2--|-2-----------2---2---2--|-0-----------0---0---0--|-0-----------0---0---0--|  |
D|-3-----------3---3---3--|-3-----------3---3---3--|-2-----------2---2---2--|-0-----------0---0---0--|  |
A|-3-----------3---3---3--|-3-----------3---3---3--|-3-----------3---3---3--|-2-----------2---2---2--|  |
E|-1-----------1---1---1--|-1-----------1---1---1--|------------------------|------------------------|  |
                                                                                                        |
[Electric Guitar]                                                                                       |
                                                                                                        |
e|------------------------|------------------------|------------------------|------------------------|  |
B|------------------------|------------------------|------------------------|------------------------|  |
G|---------------------5--|-7b(9)------------------|------------------------|------------------------|  |
D|-7-------------5--7-----|---------7-------5------|-7b(9)r7----------------|------------------------|  |
A|------------------------|------------------------|------------------------|------------------------| /
E|------------------------|------------------------|------------------------|------------------------|/

   streets                  And     I




[OUTRO]

[Piano arranged for Guitar]

e|-0----------------------|-0----------------------|-0----------------------|-0----------------------|\
B|-1----------------------|-1----------------------|-0----------------------|-0----------------------| \
G|-2----------------------|-2----------------------|-1----------------------|-1----------------------|  |
D|-2----------------------|-2----------------------|-2----------------------|-2----------------------|  |
A|-0----------------------|-0----------------------|-2----------------------|-2----------------------|  |
E|------------------------|------------------------|-0----------------------|-0----------------------|  |
                                                                                                        |
[Acoustic Guitar]                                                                                       |
                                                                                                        |
e|-0-----------0---0---0--|-0-------0-------0------|-0-----------0---0---0--|-0-------0-------0------|  |
B|-1-----------1---1---1--|-1-------1-------1------|-0-----------0---0---0--|-0-------0-------0------|  |
G|-2-----------2---2---2--|-2-------2-------2------|-1-----------1---1---1--|-1-------1-------1------|  |
D|-2-----------0---2---0--|-2-------0-------2------|-2-----------2---2---2--|-2-------2-------2------|  |
A|-0-----------0---0---0--|-0-------0-------0------|-2-----------0---2---0--|-2-------0-------2------| / 
E|------------------------|------------------------|-0-----------0---0---0--|-0-------0-------0------|/

                            Take    from    the      air                      Take    to      the 



[Piano arranged for Guitar]

e|-1----------------------|-1----------------------|-0----------------------|-0----------------------|\
B|-1----------------------|-1----------------------|-1----------------------|-1----------------------| \
G|-2----------------------|-2----------------------|-0----------------------|-0----------------------|  |
D|-3----------------------|-3----------------------|-2----------------------|-0----------------------|  |
A|-3----------------------|-3----------------------|-3----------------------|-2----------------------|  |
E|-1----------------------|-1----------------------|------------------------|------------------------|  |
                                                                                                        |
[Acoustic Guitar]                                                                                       |
                                                                                                        |
e|-1-----------1---1---1--|-1-----------1---1---1--|-0-----------0---0---0--|-0-----------0---0---0--|  |
B|-1-----------1---1---1--|-1-----------1---1---1--|-1-----------1---1---1--|-1-----------1---1---1--|  |
G|-2-----------2---2---2--|-2-----------2---2---2--|-0-----------0---0---0--|-0-----------0---0---0--|  |
D|-3-----------3---3---3--|-3-----------3---3---3--|-2-----------2---2---2--|-0-----------0---0---0--|  |
A|-3-----------3---3---3--|-3-----------3---3---3--|-3-----------3---3---3--|-2-----------2---2---2--| /
E|-1-----------1---1---1--|-1-----------1---1---1--|------------------------|------------------------|/

   streets                  And     I



[Piano arranged for Guitar]

e|-0----------------------|-0----------------------|-0----------------------|-0----------------------|\
B|-1----------------------|-1----------------------|-0----------------------|-0----------------------| \
G|-2----------------------|-2----------------------|-1----------------------|-1----------------------|  |
D|-2----------------------|-2----------------------|-2----------------------|-2----------------------|  |
A|-0----------------------|-0----------------------|-2----------------------|-2----------------------|  |
E|------------------------|------------------------|-0----------------------|-0----------------------|  |
                                                                                                        |
[Acoustic Guitar]                                                                                       |
                                                                                                        |
e|-0-----------0---0---0--|-0-------0-------0------|-0-----------0---0---0--|-0-------0-------0------|  |
B|-1-----------1---1---1--|-1-------1-------1------|-0-----------0---0---0--|-0-------0-------0------|  |
G|-2-----------2---2---2--|-2-------2-------2------|-1-----------1---1---1--|-1-------1-------1------|  |
D|-2-----------0---2---0--|-2-------0-------2------|-2-----------2---2---2--|-2-------2-------2------|  |
A|-0-----------0---0---0--|-0-------0-------0------|-2-----------0---2---0--|-2-------0-------2------| / 
E|------------------------|------------------------|-0-----------0---0---0--|-0-------0-------0------|/

                            Take    from    the      air                      Take    to      the 



[Piano arranged for Guitar]

e|-1----------------------|-1----------------------|-0----------------------|-0----------------------|\
B|-1----------------------|-1----------------------|-1----------------------|-1----------------------| \
G|-2----------------------|-2----------------------|-0----------------------|-0----------------------|  |
D|-3----------------------|-3----------------------|-2----------------------|-0----------------------|  |
A|-3----------------------|-3----------------------|-3----------------------|-2----------------------|  |
E|-1----------------------|-1----------------------|------------------------|------------------------|  |
                                                                                                        |
[Acoustic Guitar]                                                                                       |
                                                                                                        |
e|-1-----------1---1---1--|-1-----------1---1---1--|-0-----------0---0---0--|-0-----------0---0---0--|  |
B|-1-----------1---1---1--|-1-----------1---1---1--|-1-----------1---1---1--|-1-----------1---1---1--|  |
G|-2-----------2---2---2--|-2-----------2---2---2--|-0-----------0---0---0--|-0-----------0---0---0--|  |
D|-3-----------3---3---3--|-3-----------3---3---3--|-2-----------2---2---2--|-0-----------0---0---0--|  |
A|-3-----------3---3---3--|-3-----------3---3---3--|-3-----------3---3---3--|-2-----------2---2---2--| /
E|-1-----------1---1---1--|-1-----------1---1---1--|------------------------|------------------------|/

   streets                  And     I



[Acoustic Guitar]

e|-0----------------------|------------------------|------------------------|------------------------|
B|-1----------------------|------------------------|------------------------|------------------------|
G|-2----------------------|------------------------|------------------------|------------------------|
D|-2----------------------|------------------------|------------------------|------------------------|
A|-0----------------------|------------------------|------------------------|------------------------|
E|------------------------|------------------------|------------------------|------------------------|


************************************

| x   Dead note
| h   Hammer-on
| r   Release
| b   Bend
| /   Slide up
| ~   Vibrato

************************************
Suggest correction
Give kudos to tab author, rate the tab!
1 2 3 4 5
comments
print report bad tab
guest
You may want to rate the tab now too:
select rating
Wanna post a correction for this tab? Suggest correction