Oops, an error
Loading. Please wait.

Chicago Tab

version 2
version 2

Whole song

  • This is the first complete tab of this song.
16 views 3 this week
no commentswrite comment
1 2 3 4 5
x 3
add to favorites
launch autoscroll
font size
0
reset
how to read this tab
guitar tuner
Autoscroll
slow
fast
+/-
esc
set tempo
stop
Help us to improve Ultimate-Guitar.com Take our survey!
×
Author
Difficulty
intermediate
About this tab version
This is the first complete tab of this song. Was this info helpful? Yes No
Portugal. The Man
Chicago
Waiter - "You Vultures" (2006)

Tuning - EADGBe


[INTRO]

6/8

e|------------------------|------------------------|------------------------|------------------------|
B|------------------------|------------------------|------------------------|------------------------|
G|----5------5----5-------|----5------5----5-------|----5------5----5-------|----5-------5----5------|
D|----5------5----x-------|----5------5----x-------|----5------5----x-------|----5-------5----x------|
A|----------------3-/-4---|----------------3-/-4---|----------------3-/-4---|-----------------3-/-4--|
E|-5------5---------------|-5------5---------------|-5-------5--------------|-5-------5--------------|

e|------------------------|------------------------|------------------------|------------------------|
B|------------------------|------------------------|------------------------|------------------------|
G|----5------5----5-------|----5------5----5-------|----5------5----5-------|----5-------5----5------|
D|----5------5----x-------|----5------5----x-------|----5------5----x-------|----5-------5----x------|
A|----------------3-/-4---|----------------3-/-4---|----------------3-/-4---|-----------------3-/-4--|
E|-5------5---------------|-5------5---------------|-5-------5--------------|-5-------5--------------|

e|------------------------|------------------------|------------------------|------------------------|
B|------------------------|------------------------|------------------------|------------------------|
G|----5------5----5-------|----5------5----5-------|----5------5----5-------|----5-------5----5------|
D|----5------5----x-------|----5------5----x-------|----5------5----x-------|----5-------5----x------|
A|----------------3-/-4---|----------------3-/-4---|----------------3-/-4---|-----------------3-/-4--|
E|-5------5---------------|-5------5---------------|-5-------5--------------|-5-------5--------------|

   Oh                                                                         Oh      Oh      Oh

e|------------------------|------------------------|------------------------|------------------------|
B|------------------------|------------------------|------------------------|------------------------|
G|----5------5----5-------|----5------5----5-------|----5------5----5-------|----5-------5----5------|
D|----5------5----x-------|----5------5----x-------|----5------5----x-------|----5-------5----x------|
A|----------------3-/-4---|----------------3-/-4---|----------------3-/-4---|-----------------3-/-4--|
E|-5------5---------------|-5------5---------------|-5-------5--------------|-5-------5--------------|

   Oh     Oh      Oh        Oh          



[VERSE]

e|------------------------|------------------------|------------------------|------------------------|
B|------------------------|------------------------|------------------------|------------------------|
G|----5------5----5-------|----5------5----5-------|----5------5----5-------|----5-------5----5------|
D|----5------5----x-------|----5------5----x-------|----5------5----x-------|----5-------5----x------|
A|----------------3-/-4---|----------------3-/-4---|----------------3-/-4---|-----------------3-/-4--|
E|-5------5---------------|-5------5---------------|-5-------5--------------|-5-------5--------------|

   The    pigs    spitting     taxes         and             unwanted         tasks,     we   say,

e|------------------------|------------------------|------------------------|------------------------|
B|------------------------|------------------------|------------------------|------------------------|
G|------------------------|------------------------|------------------------|------------------------|
D|------------------------|------------------------|------------------------|------------------------|
A|------------------------|------------------------|------------------------|------------------------|
E|-5~~~~~~~~~~~~~~~~~~~~~~|------------------------|------------------------|------------------------|

   Send  me  to  the  battle  please  sir            Send  me  to  the  battle  please  sir
                                          (Ah  Ah)                                              (Ah)


e|------------------------|------------------------|------------------------|------------------------|
B|------------------------|------------------------|------------------------|------------------------|
G|----5------5----5-------|----5------5----5-------|----5------5----5-------|----5-------5----5------|
D|----5------5----x-------|----5------5----x-------|----5------5----x-------|----5-------5----x------|
A|----------------3-/-4---|----------------3-/-4---|----------------3-/-4---|-----------------3-/-4--|
E|-5------5---------------|-5------5---------------|-5-------5--------------|-5-------5--------------|


e|------------------------|------------------------|------------------------|------------------------|
B|------------------------|------------------------|------------------------|------------------------|
G|----5------5----5-------|----5------5----5-------|----5------5----5-------|----5-------5----5------|
D|----5------5----x-------|----5------5----x-------|----5------5----x-------|----5-------5----x------|
A|----------------3-/-4---|----------------3-/-4---|----------------3-/-4---|-----------------3-/-4--|
E|-5------5---------------|-5------5---------------|-5-------5--------------|-5-------5--------------|

 Oh                                                                         Oh      Oh      Oh

e|------------------------|------------------------|------------------------|------------------------|
B|------------------------|------------------------|------------------------|------------------------|
G|----5------5----5-------|----5------5----5-------|----5------5----5-------|----5-------5----5------|
D|----5------5----x-------|----5------5----x-------|----5------5----x-------|----5-------5----x------|
A|----------------3-/-4---|----------------3-/-4---|----------------3-/-4---|-----------------3-/-4--|
E|-5------5---------------|-5------5---------------|-5-------5--------------|-5-------5--------------|

   Oh     Oh      Oh        Oh  



[VERSE II]

e|------------------------|------------------------|------------------------|------------------------|
B|------------------------|------------------------|------------------------|------------------------|
G|----5------5----5-------|----5------5----5-------|----5------5----5-------|----5-------5----5------|
D|----5------5----x-------|----5------5----x-------|----5------5----x-------|----5-------5----x------|
A|----------------3-/-4---|----------------3-/-4---|----------------3-/-4---|-----------------3-/-4--|
E|-5------5---------------|-5------5---------------|-5-------5--------------|-5-------5--------------|

   Chicago        is        dancing        in        xylophone         laughter          we   say

e|------------------------|------------------------|------------------------|------------------------|
B|------------------------|------------------------|------------------------|------------------------|
G|------------------------|------------------------|------------------------|------------------------|
D|------------------------|------------------------|------------------------|------------------------|
A|------------------------|------------------------|------------------------|------------------------|
E|-5~~~~~~~~~~~~~~~~~~~~~~|------------------------|------------------------|------------------------|

   Burn   this   fucker   down,   down,   down,      Burn    this    motherfucker    down   

e|------------------------|------------------------|------------------------|------------------------|
B|------------------------|------------------------|------------------------|------------------------|
G|----5------5----5-------|----5------5----5-------|----5------5----5-------|----5-------5----5------|
D|----5------5----x-------|----5------5----x-------|----5------5----x-------|----5-------5----x------|
A|----------------3-/-4---|----------------3-/-4---|----------------3-/-4---|-----------------3-/-4--|
E|-5------5---------------|-5------5---------------|-5-------5--------------|-5-------5--------------|



[CHORUS]

4/4 - Slower tempo

[Piano arranged for Guitar]

e|-0----------------------|-3----------------------|-1----------------------|------------------------|
B|-0----------------------|-3----------------------|-3----------------------|------------------------|
G|-0----------------------|-0----------------------|-2----------------------|------------------------|
D|-2----------------------|-0----------------------|-0----------------------|------------------------|
A|-2----------------------|-2----------------------|-0----------------------|------------------------|
E|-0----------------------|-3----------------------|------------------------|------------------------|

   Please,                  please            speak  up                                   I    can't        

e|-0-----------0----------|-1----------------------|-0----------------------|-7----------------------|
B|-1-----------1----------|-3----------------------|-1----------------------|-8----------------------|
G|-2-----------0----------|-2----------------------|-2----------------------|-9----------------------|
D|-2-----------2----------|-0----------------------|-2----------------------|-9----------------------|
A|-0-----------3----------|-0----------------------|-0----------------------|-7----------------------|
E|------------------------|------------------------|------------------------|------------------------|

  hear with these clouds in my ears              The system's             downtown   we'll get through

e|-8----------------------|
B|-10---------------------|
G|-10---------------------|
D|-10---------------------|
A|-8----------------------|
E|------------------------|

        Send the money for



6/8 - Original tempo

e|------------------------|------------------------|------------------------|------------------------|
B|------------------------|------------------------|------------------------|------------------------|
G|----5------5----5-------|----5------5----5-------|----5------5----5-------|----5-------5----5------|
D|----5------5----x-------|----5------5----x-------|----5------5----x-------|----5-------5----x------|
A|----------------3-/-4---|----------------3-/-4---|----------------3-/-4---|-----------------3-/-4--|
E|-5------5---------------|-5------5---------------|-5-------5--------------|-5-------5--------------|

e|------------------------|------------------------|------------------------|------------------------|
B|------------------------|------------------------|------------------------|------------------------|
G|----5------5----5-------|----5------5----5-------|----5------5----5-------|----5-------5----5------|
D|----5------5----x-------|----5------5----x-------|----5------5----x-------|----5-------5----x------|
A|----------------3-/-4---|----------------3-/-4---|----------------3-/-4---|-----------------3-/-4--|
E|-5------5---------------|-5------5---------------|-5-------5--------------|-5-------5--------------|

e|------------------------|------------------------|------------------------|------------------------|
B|------------------------|------------------------|------------------------|------------------------|
G|----5------5----5-------|----5------5----5-------|----5------5----5-------|----5-------5----5------|
D|----5------5----x-------|----5------5----x-------|----5------5----x-------|----5-------5----x------|
A|----------------3-/-4---|----------------3-/-4---|----------------3-/-4---|-----------------3-/-4--|
E|-5------5---------------|-5------5---------------|-5-------5--------------|-5-------5--------------|



[VERSE III]

e|------------------------|------------------------|------------------------|------------------------|
B|------------------------|------------------------|------------------------|------------------------|
G|----5------5----5-------|----5------5----5-------|----5------5----5-------|----5-------5----5------|
D|----5------5----x-------|----5------5----x-------|----5------5----x-------|----5-------5----x------|
A|----------------3-/-4---|----------------3-/-4---|----------------3-/-4---|-----------------3-/-4--|
E|-5------5---------------|-5------5---------------|-5-------5--------------|-5-------5--------------|

   The    horse   has       been   taken   running   clubs   in     the       pasture    we   say

e|------------------------|------------------------|------------------------|------------------------|
B|------------------------|------------------------|------------------------|------------------------|
G|------------------------|------------------------|------------------------|------------------------|
D|------------------------|------------------------|------------------------|------------------------|
A|------------------------|------------------------|------------------------|------------------------|
E|-5~~~~~~~~~~~~~~~~~~~~~~|------------------------|------------------------|------------------------|

   Burn   this   fucker   down,   down,   down,      Burn    this    motherfucker    down  

e|------------------------|------------------------|------------------------|------------------------|
B|------------------------|------------------------|------------------------|------------------------|
G|----5------5----5-------|----5------5----5-------|----5------5----5-------|----5-------5----5------|
D|----5------5----x-------|----5------5----x-------|----5------5----x-------|----5-------5----x------|
A|----------------3-/-4---|----------------3-/-4---|----------------3-/-4---|-----------------3-/-4--|
E|-5------5---------------|-5------5---------------|-5-------5--------------|-5-------5--------------|



[SOLO]

e|------------------------|------------------------|------------------------|------------------------|
B|-10-----------10--------|-8------------8---------|-10-----------10--------|-8------------8---------|
G|------------------------|------------------------|------------------------|------------------------|
D|------7------------7----|------7------------7----|------7------------7----|------7------------7----|
A|------------------------|------------------------|------------------------|------------------------|
E|------------------------|------------------------|------------------------|------------------------|

e|------------------------|------------------------|------------------------|------------------------|
B|------------------------|------------------------|------------------------|------------------------|
G|----5------5----5-------|----5------5----5-------|----5------5----5-------|----5-------5----5------|
D|----5------5----x-------|----5------5----x-------|----5------5----x-------|----5-------5----x------|
A|----------------3-/-4---|----------------3-/-4---|----------------3-/-4---|-----------------3-/-4--|
E|-5------5---------------|-5------5---------------|-5-------5--------------|-5-------5--------------|



[CHORUS]

4/4 - Slower tempo

[Piano arranged for Guitar]

e|-0----------------------|-3----------------------|-1----------------------|------------------------|
B|-0----------------------|-3----------------------|-3----------------------|------------------------|
G|-0----------------------|-0----------------------|-2----------------------|------------------------|
D|-2----------------------|-0----------------------|-0----------------------|------------------------|
A|-2----------------------|-2----------------------|-0----------------------|------------------------|
E|-0----------------------|-3----------------------|------------------------|------------------------|

   Please,                  please            speak  up                                   I    can't    

e|-0-----------0----------|-1----------------------|-0----------------------|-0----------------------|
B|-1-----------1----------|-3----------------------|-1----------------------|-1----------------------|
G|-2-----------0----------|-2----------------------|-2----------------------|-0----------------------|
D|-2-----------2----------|-0----------------------|-2----------------------|-2----------------------|
A|-0-----------3----------|-0----------------------|-0----------------------|-3----------------------|
E|------------------------|------------------------|------------------------|------------------------|

  hear with these clouds in my ears                  Ooooo  

e|-1----------------------|------------------------|-0----------------------|-0----------------------|
B|-3----------------------|------------------------|-1----------------------|-1----------------------|
G|-2----------------------|------------------------|-2----------------------|-0----------------------|
D|-0----------------------|------------------------|-2----------------------|-2----------------------|
A|-0----------------------|------------------------|-0----------------------|-3----------------------|
E|------------------------|------------------------|------------------------|------------------------|

                                     They're singin' Ooooo

e|-1----------------------|------------------------|-0----------------------|-0----------------------|
B|-3----------------------|------------------------|-1----------------------|-1----------------------|
G|-2----------------------|------------------------|-2----------------------|-0----------------------|
D|-0----------------------|------------------------|-2----------------------|-2----------------------|
A|-0----------------------|------------------------|-0----------------------|-3----------------------|
E|------------------------|------------------------|------------------------|------------------------|

                                     They're singin' Ooooo

e|-1----------------------|------------------------|-0----------------------|-7----------------------|
B|-3----------------------|------------------------|-1----------------------|-8----------------------|
G|-2----------------------|------------------------|-2----------------------|-9----------------------|
D|-0----------------------|------------------------|-2----------------------|-9----------------------|
A|-0----------------------|------------------------|-0----------------------|-7----------------------|
E|------------------------|------------------------|------------------------|------------------------|

                                     They're singin'      The   system's  downtown we'll get through

e|-8----------------------|-0----------------------|-0----------------------|-7----------------------|
B|-10---------------------|-1----------------------|-1----------------------|-8----------------------|
G|-10---------------------|-0----------------------|-2----------------------|-9----------------------|
D|-10---------------------|-2----------------------|-2----------------------|-9----------------------|
A|-8----------------------|-3----------------------|-0----------------------|-7----------------------|
E|------------------------|------------------------|------------------------|------------------------|

     send the money for the caterpillars to entertain     The   system's  downtown we'll get through   
   

e|-8----------------------|-0----------------------|-0----------------------|-7----------------------|
B|-10---------------------|-1----------------------|-1----------------------|-8----------------------|
G|-10---------------------|-0----------------------|-2----------------------|-9----------------------|
D|-10---------------------|-2----------------------|-2----------------------|-9----------------------|
A|-8----------------------|-3----------------------|-0----------------------|-7----------------------|
E|------------------------|------------------------|------------------------|------------------------|

     send the money for the caterpillars to entertain     The   system's  downtown we'll get through

e|-8----------------------|-0----------------------|-0----------------------|-7----------------------|
B|-10---------------------|-1----------------------|-1----------------------|-8----------------------|
G|-10---------------------|-0----------------------|-2----------------------|-9----------------------|
D|-10---------------------|-2----------------------|-2----------------------|-9----------------------|
A|-8----------------------|-3----------------------|-0----------------------|-7----------------------|
E|------------------------|------------------------|------------------------|------------------------|

     send the money for the caterpillars to entertain     The   system's  downtown we'll get through

e|-8----------------------|-0----------------------|-0----------------------|-7----------------------|
B|-10---------------------|-1----------------------|-1----------------------|-8----------------------|
G|-10---------------------|-0----------------------|-2----------------------|-9----------------------|
D|-10---------------------|-2----------------------|-2----------------------|-9----------------------|
A|-8----------------------|-3----------------------|-0----------------------|-7----------------------|
E|------------------------|------------------------|------------------------|------------------------|

     send the money for the caterpillars to entertain     The   system's  downtown we'll get through

e|-8----------------------|-0----------------------|-0----------------------|-7----------------------|
B|-10---------------------|-1----------------------|-1----------------------|-8----------------------|
G|-10---------------------|-0----------------------|-2----------------------|-9----------------------|
D|-10---------------------|-2----------------------|-2----------------------|-9----------------------|
A|-8----------------------|-3----------------------|-0----------------------|-7----------------------|
E|------------------------|------------------------|------------------------|------------------------|

     send the money for the caterpillars to entertain     The   system's  downtown we'll get through

e|-8----------------------|-0----------------------|
B|-10---------------------|-1----------------------|
G|-10---------------------|-0----------------------|
D|-10---------------------|-2----------------------|
A|-8----------------------|-3----------------------|
E|------------------------|------------------------|

     send the money for the caterpillars to entertain 



[OUTRO]

[Piano arranged for Guitar]
  3/4                      4/4                      3/4                      3/4
e|------------------------|-7----------------------|-8----------------------|-0----------------------|\
B|-1----------------------|-8----------------------|-10---------------------|-1----------------------| \
G|-2----------------------|-9----------------------|-10---------------------|-0----------------------|  |
D|-2----------------------|-9----------------------|-10---------------------|-2----------------------|  |
A|-0----------------------|-7----------------------|-8----------------------|-3----------------------|  |
E|------------------------|------------------------|------------------------|------------------------|  |
                                                                                                        |
[Guitar 1]                                                                                              |
  3/4                      4/4                      3/4                      3/4                        |
e|------------------------|------------------------|------------------------|------------------------|  |
B|------------------------|------------------------|------------------------|------------------------|  |
G|------------------------|------------------------|------------------------|------------------------|  |
D|---------------10-------|--------5--7/9--7\5-----|-----------7-----7------|-----------2-----2------|  |
A|----------/12------12---|---------------------7--|--------------8-----8---|--------------3-----0---| / 
E|------------------------|------------------------|------------------------|------------------------|/  


[Piano arranged for Guitar]
  3/4                      4/4                      3/4                      3/4
e|------------------------|-7----------------------|-8----------------------|-0----------------------|\
B|-1----------------------|-8----------------------|-10---------------------|-1----------------------| \
G|-2----------------------|-9----------------------|-10---------------------|-0----------------------|  |
D|-2----------------------|-9----------------------|-10---------------------|-2----------------------|  |
A|-0----------------------|-7----------------------|-8----------------------|-3----------------------|  |
E|------------------------|------------------------|------------------------|------------------------|  |
                                                                                                        |
[Guitar 1]                                                                                              |
  3/4                      4/4                      3/4                      3/4                        |
e|------------------------|------------------------|------------------------|------------------------|  |
B|------------------------|------------------------|------------------------|------------------------|  |
G|------------------------|------------------------|------------------------|------------------------|  |
D|---------------10-------|--------5--7/9--7\5-----|-----------7-----7------|-----------2-----2------|  |
A|----------/12------12---|---------------------7--|--------------8-----8---|--------------3-----0---| /
E|------------------------|------------------------|------------------------|------------------------|/


[Piano arranged for Guitar]
  3/4                      4/4                      3/4                      3/4
e|------------------------|-7----------------------|-8----------------------|-0----------------------|\
B|-1----------------------|-8----------------------|-10---------------------|-1----------------------| \
G|-2----------------------|-9----------------------|-10---------------------|-0----------------------|  |
D|-2----------------------|-9----------------------|-10---------------------|-2----------------------|  |
A|-0----------------------|-7----------------------|-8----------------------|-3----------------------|  |
E|------------------------|------------------------|------------------------|------------------------|  |
                                                                                                        |
[Guitar 1]                                                                                              |
  3/4                      4/4                      3/4                      3/4                        |
e|------------------------|------------------------|------------------------|------------------------|  |
B|------------------------|------------------------|------------------------|------------------------|  |
G|------------------------|------------------------|------------------------|------------------------|  |
D|---------------10-------|--------5--7/9--7\5-----|-----------7-----7------|-----------2-----2------|  |
A|----------/12------12---|---------------------7--|--------------8-----8---|--------------3-----0---|  |
E|------------------------|------------------------|------------------------|------------------------|  |
                                                                                                        |
[Guitar 2]                                                                                              |
  3/4                      4/4                      3/4                      3/4                        |
e|------------------------|------------------------|------------------------|------------------------|  |
B|------------------------|------------------------|------------------------|------------------------|  |
G|------------------------|-------/9--7\5-/7\5-----|-----------0------------|-----------5--7-/9-\7---|  |
D|------------------------|------------------------|------------------------|------------------------|  |
A|------------------------|------------------------|------------------------|------------------------| /
E|------------------------|------------------------|------------------------|------------------------|/


[Piano arranged for Guitar]
  3/4                      4/4                      3/4                      3/4
e|------------------------|-7----------------------|-8----------------------|-0----------------------|\
B|-1----------------------|-8----------------------|-10---------------------|-1----------------------| \
G|-2----------------------|-9----------------------|-10---------------------|-0----------------------|  | 
D|-2----------------------|-9----------------------|-10---------------------|-2----------------------|  |
A|-0----------------------|-7----------------------|-8----------------------|-3----------------------|  |
E|------------------------|------------------------|------------------------|------------------------|  |
                                                                                                        |
[Guitar 1]                                                                                              |
  3/4                      4/4                      3/4                      3/4                        |
e|------------------------|------------------------|------------------------|------------------------|  |
B|------------------------|------------------------|------------------------|-0----------------------|  |
G|------------------------|------------------------|------------------------|-0----------------------|  |
D|---------------10-------|--------5--7/9--7\5-----|-----------7-----7------|-2----------------------|  |
A|----------/12------12---|---------------------7--|--------------8-----8---|-3----------------------|  |
E|------------------------|------------------------|------------------------|------------------------|  |
                                                                                                        |
[Guitar 2]                                                                                              |
  3/4                      4/4                      3/4                      3/4                        |
e|------------------------|------------------------|------------------------|------------------------|  |
B|------------------------|------------------------|------------------------|--0---------------------|  |
G|------------------------|----/9--7-\5/7----------|-----------5--7--5\-----|-0----------------------|  |
D|------------------------|------------------------|------------------------|------------------------|  |
A|------------------------|------------------------|------------------------|------------------------| /
E|------------------------|------------------------|------------------------|------------------------|/



************************************

| x   Dead note
| /   Slide up
| \   Slide down
| ~   Vibrato

************************************
Suggest correction
Give kudos to tab author, rate the tab!
1 2 3 4 5
comments
print report bad tab
guest
You may want to rate the tab now too:
select rating
Wanna post a correction for this tab? Suggest correction