Oops, an error
Loading. Please wait.

Creep In A T-Shirt tab

9,255 views 21 this week
3 commentsread comments
1 2 3 4 5
x 12
add to favorites
×
Save as Personal and add changes to this tab that will be seen only by you. Learn more ›
×
You can save this tab as Personal to edit and correct it or add notes. All changes will be seen only by you. Learn more »
launch autoscroll
font size
0
reset
how to read this tab
guitar tuner
edit
Autoscroll
slow
fast
+/-
esc
set tempo
stop
Author
Difficulty
Song: Creep In A T-Shirt
Band: Portugal The Man
Album: Evil Friends


Verse & Chorus:

D#m - F# - C# - G#


Mini solo after FIRST VERSE (ie after 'I'll just stay in bed, I'm better off alone') 
goes like this:

e|---------------------------------------------------------------|
B|----------7p6-7p6----------------------------------------------|
G|-------6h8-------8p6-8p6---------------------------------------|
D|------8-----------------8p6-6---8-6---8-6---8-6----------------|
A|---6--------------------------------------------9-6---6--------|
E|----------------------------------------------------9----------|


ALSO, during the 'I don't know what I know But I know where it's at Just because I lost 
it doesn't mean I want it back' part - this is played:

e|----------------------------------------------------------------|
B|----7------------------11----------------------16-18-----14-13--|
G|----8------------------11---------------------------------------|
D|----------------------------------------------------------------|
A|----------------------------------------------------------------|
E|----------------------------------------------------------------|

and INTO CHORUS! BTW, I love love LOVE this YOO-OOH-OOH-OOH-OOH-OOUU bit. :)


Break:

B - F#  - C# - G#
B - F#  - C# - G#
B - A#m - D#m (buildup & back to chorus)


Lyrics (via AZ Lyrics):
I'm sorry Mr. Policeman,
If I wanted to talk I woulda called a friend
Don't worry when I get back home
I'll just stay in bed, I'm better off alone

I wake up to my boring days
Never was a child, I was born this way
Always there but always out of place
Feels so alien

I don't know what I know
But I know where it's at
Just because I lost it doesn't mean I want it back

You don't get it
Cuz it the world I'm living in
You don't get it
I'm just a creep in a t-shirt, jeans, I don't fuckin care

Sorry but I don't recall the crime
My memory has left me behind
May have been a man, maybe a friend
Or maybe aliens

I don't know what I know
But I know where it's at
Just because I lost it doesn't mean I want it back

You don't get it
Cuz it the world I'm living in
You don't get it
I'm just a creep in a t-shirt, jeans, I don't fuckin care

It's not because the light here is brighter
And it's not that I'm evil, I just don't like to pretend
That I could ever be your friend

Cuz it the world I'm living in
I'm just a creep in a t-shirt, jeans, I don't fuckin care

You don't get it
Just a loser in a t-shirt, jeans, I don't fuckin care
You don't get it
I'm just a creep in a t-shirt, jeans, I don't fuckin care

            
            
Suggest correction
Creating personal tab
Creating personal tab
You can edit any tab online and save it as your Personal.

You can edit, replace or remove any tab part or add personal notes – all changes will be seen only by you.

Personal tabs can be accessed anytime from any device, even offline.
Learn more »
comments
print report bad tab
3 comments total.
+2 reply
theithilstone 10 Mar 07, 2014 06:45 AM

Correction for the solo:
e|---------------------------------------------------------------------|
B|-----------7--7------------------------------------------------------|
G|-------6h8------8p6---6----------------------------------------------|
D|----6h8-------------8---8-6---6--6-8-6---6-8-6---6-8-6---------------|
A|--6-------------------------9--------------------------9-6---6-------|
E|-----------------------------------------------------------9---------|

guest
You may want to rate the tab now too:
select rating
Wanna post a correction for this tab? Suggest correction