Oops, an error
Loading. Please wait.

Feel It Still bass

7,345 views 924 this week
5 commentsread comments
1 2 3 4 5
x 8
add to favorites
×
Save as Personal and add changes to this tab that will be seen only by you. Learn more ›
×
You can save this tab as Personal to edit and correct it or add notes. All changes will be seen only by you. Learn more »
launch autoscroll
font size
0
reset
guitar tuner
edit
Autoscroll
slow
fast
+/-
esc
set tempo
stop
Tuning: Standard

Such a great song with a great groove, surprised this hasn't been tabbed yet.
It's pretty easy, it just repeats the same pattern throughout.

[Intro]
(0:00)
G|-------------------------------------------------------|
D|-------------------------------------------------------|
A|---4--4--4---4--4--4---7--7--7---7--7--7---------------|
E|-----------4---------4---------7---------7-------------|
                                                          (x2)
G|-------------------------------------------------------|
D|-------------------------------------------------------|
A|---9--9--9---9--9--9---4--4--4---4--4--4---------------|
E|-----------9---------9---------4---------4-------------|

[Chorus]
(0:24)
"Ooh, Imma rebel just for..."
G|-------------------------------------------------------|
D|-------------------------------------------------------|
A|---4--4--4---4--4--4---7--7--7---7--7--7---------------|
E|-----------4---------4---------7---------7-------------|
                                                          (x2)
G|-------------------------------------------------------|
D|-------------------------------------------------------|
A|---9--9--9---9--9--9---4--4--4---4--4--4---------------|
E|-----------9---------9---------4---------4-------------|

G|-------------------------------------------------------|
D|-------------------------------------------------------|
A|---9--9--9---9--9--9---4--4--4---4---------------------|
E|-----------9---------9---------4-----------------------|

[Verse]
(0:48)
"...feed..."
G|-------------------------------------------------------|
D|-------------------------------------------------------|
A|---4--4--4---4--4--4---7--7--7---7--7--7---------------|
E|-----------4---------4---------7---------7-------------|
                                                         
G|-------------------------------------------------------|
D|-------------------------------------------------------|
A|---9--9--9---9--9--9---4--4--4---4--4--4---------------|
E|-----------9---------9---------4---------4-------------|

[Chorus]
(1:03)
"...kicks now..."
G|---------------------------------|
D|---------------------------------|
A|---7---7--7--7---7--7--7---------|
E|-----7---------7---------7-------|
                                                         
G|-------------------------------------------------------|
D|-------------------------------------------------------|
A|---9--9--9---9--9--9---4--4--4---4--4--4---------------|
E|-----------9---------9---------4---------4-------------|

G|-------------------------------------------------------|
D|-------------------------------------------------------|
A|---4--4--4---4--4--4---7--7--7---7--7--7---------------|
E|-----------4---------4---------7---------4-------------|
                                                         
G|-------------------------------------------------------|
D|-------------------------------------------------------|
A|---9--9--9---9--9--9---4--4--4---4--4--4---------------|
E|-----------9---------9---------4---------4-------------|

[Bridge]
(1:25)
"...peace..."
G|-------------------------------------------------------|
D|-------------------------------------------------------|
A|---------------------0-4--4--4---4--4--4---------------| (x4)
E|---5--5--5-0-2--2--2-----------4---------4-------------|

(1:49)
"Is it coming?"
G|-------------------------------------------------------|
D|-------------------------------------------------------|
A|---------------------0-4--4--4---4--4--4---------------|
E|---5--5--5-0-2--2--2-----------4---------4-------------|

G|-------------------------------------------------------|
D|-------------------------------------------------------|
A|---------------------0-4-------------------------------|
E|---5--5--5-0-2--2--2-----------------------------------|

[Chorus]
(2:01)
"Ooh, Imma rebel just for..."
G|-------------------------------------------------------|
D|-------------------------------------------------------|
A|---4--4--4---4--4--4---7--7--7---7--7--7---------------|
E|-----------4---------4---------7---------7-------------|
                                                         
G|-------------------------------------4-----------------|
D|-----------------------------------2-------------------|
A|---9--9--9---9--9--9-----------4-4---------------------|
E|-----------9-------------------------------------------|

(2:13)
"Ooh, Imma rebel just for..."
G|-------------------------------------------------------|
D|-------------------------------------------------------|
A|---4--4--4---4--4--4---7--7--7---7--7--7---------------|
E|-----------4---------4---------7---------7-------------|
                                                          (x2)
G|-------------------------------------------------------|
D|-------------------------------------------------------|
A|---9--9--9---9--9--9---4--4--4---4--4--4---------------|
E|-----------9---------9---------4---------4-------------|

            
            
Suggest correction
Creating personal tab
Creating personal tab
You can edit any tab online and save it as your Personal.

You can edit, replace or remove any tab part or add personal notes – all changes will be seen only by you.

Personal tabs can be accessed anytime from any device, even offline.
Learn more »
comments
print report bad tab
5 comments total. Showing first comments.
+2 reply
just6jace 10 Jul 07, 2017 10:14 AM, edited at 02:15 pm

this is hotttttttttttttttttttttttttt

+2 reply
bobbychandlerdewayne2175 10 Aug 17, 2017 10:16 PM

Thanks bro my kids love this song

+2 reply
rwlees 10 Aug 29, 2017 04:00 PM

glad you've done this!

guest
You may want to rate the tab now too:
select rating
Wanna post a correction for this tab? Suggest correction