Oops, an error
Loading. Please wait.

Heavy Games intro tab

154 views 3 this week
2 commentsread comments
1 2 3 4 5
2 more votes to show rating
add to favorites
×
Save as Personal and add changes to this tab that will be seen only by you. Learn more ›
×
You can save this tab as Personal to edit and correct it or add notes. All changes will be seen only by you. Learn more »
launch autoscroll
font size
0
reset
how to read this tab
guitar tuner
edit
Autoscroll
slow
fast
+/-
esc
set tempo
stop
Portugal. The Man
Heavy Games
The Walking Dead Volume 2; Season 4 Soundtrack

Tuning - Standard
Capo - 3rd Fret

4/4

[Intro]

e|-----------------0-----|-----------------0-----|-----------------0-----|-----------------0-----|
B|-----3-----------------|-----3-----------------|-----3-----------------|-----3-----------------|
G|---------4-----------4-|---------4-----------4-|---------4-----------4-|---------4-----------4-|
D|-------------4---------|-------------4---------|-------------4---------|-------------4---------|
A|-2---------------------|-2---------------------|-1---------------------|-1---------------------|
E|-----------------------|-----------------------|-----------------------|-----------------------|

e|-----------------0-----|-----------------0-----|-----------------------|-----------------------|
B|-----3-----------------|-----3-----------------|-----3-----------3-----|-----3-----------3-----|
G|---------4-----------4-|---------4-----------4-|---------4-----------4-|---------4-----------4-|
D|-------------4---------|-------------4---------|-----------------------|-----------------------|
A|-0---------------------|-0---------------------|-----------------------|-0-----------1---------|
E|-----------------------|-----------------------|-2-----------3---------|-----------------------|
Suggest correction
Creating personal tab
Creating personal tab
You can edit any tab online and save it as your Personal.

You can edit, replace or remove any tab part or add personal notes – all changes will be seen only by you.

Personal tabs can be accessed anytime from any device, even offline.
Learn more »
Give kudos to tab author, rate the tab!
1 2 3 4 5
comments
print report bad tab
2 comments total.
0 reply
Andrew&Guitar 25 Apr 14, 2017 05:18 PM

This is awesome thanks! This song introduced me to Portugal the man and I'm really glad I can finally play one of the favorite songs now!

0 reply
Andrew&Guitar 25 Apr 14, 2017 05:18 PM

👍

guest
You may want to rate the tab now too:
select rating
Wanna post a correction for this tab? Suggest correction