Oops, an error
Loading. Please wait.

Marching With 6 tab

version 1
version 1

Whole song

Interactive

3,821 views 6 this week
1 commentread comment
1 2 3 4 5
1 last vote to show rating
add to favorites
×
Save as Personal and add changes to this tab that will be seen only by you. Learn more ›
×
You can save this tab as Personal to edit and correct it or add notes. All changes will be seen only by you. Learn more »
launch autoscroll
font size
0
reset
how to read this tab
guitar tuner
edit
Autoscroll
slow
fast
+/-
esc
set tempo
stop
Author
Difficulty
this is played pretty much throughout the whole song

e|-55xx55xx55xx55xx55xx55xx55xx55xx-|
B|-55xx55xx55xx55xx55xx55xx55xx55xx-|
G|-55xx55xx55xx55xx55xx55xx55xx55xx-|
D|-77xx77xx77xx77xx77xx77xx77xx77xx-|
A|-00xx00xx00xx00xx66xx66xx66xx66xx-|
E|----------------------------------|

this plays during the "oh, oh, oh" part

|----------|
|----------|
|-5*-4*-3*-|
|----------|
|----------|
|----------|

then this part comes in after a couple of those

|-----------------------------------------------------------|
|--------------1-----3-----5---3----------------3-----5---3-|
|--------4-0-2---2-4---4-5---4------------4-0-2---4-5---4---| x2
|------2--------------------------------2-------------------|
|----3--------------------------------3---------------------|
|0-5------------------------------0-5-----------------------|

and then play the "oh, oh, oh" part right after it

this is after 2 verses and then some noise(you can figure that out yourself)

|-----------------| play that a buncha times and then it changes a bit to
|---------------3-| this
|-2--5------------|
|-2---------2-5---|
|-0-----3-5-------|
|-----------------|

|-----------1-|
|-------------|
|--3----------|
|--------0-3--|
|----1-3------|
|-3-----------|

it pretty much ends with the same stuff as before. you should be able to figure it out. 
or comments- email me at bedofbrokenglass@yahoo.com
-enjoi

            
            
Suggest correction
Creating personal tab
Creating personal tab
You can edit any tab online and save it as your Personal.

You can edit, replace or remove any tab part or add personal notes – all changes will be seen only by you.

Personal tabs can be accessed anytime from any device, even offline.
Learn more »
Give kudos to tab author, rate the tab!
1 2 3 4 5
comments
print report bad tab
1 comment total.
0 reply
YouAreNotTheSun 134 Feb 12, 2007 04:40 PM

this is definitely accurate but i think theres one very very small problem.
i think this:
|-----------1-|
|-------------|
|--3----------|
|--------0-3--|
|----1-3------|
|-3-----------|

Should be this:
|-------------|
|-----------1-|
|--3----------|
|--------0-3--|
|----1-3------|
|-3-----------|

guest
You may want to rate the tab now too:
select rating
Wanna post a correction for this tab? Suggest correction