Oops, an error
Loading. Please wait.

New Orleans Tab

13 views 1 this week
no commentswrite comment
1 2 3 4 5
3 more votes to show rating
add to favorites
launch autoscroll
font size
0
reset
how to read this tab
guitar tuner
Autoscroll
slow
fast
+/-
esc
set tempo
stop
Help us to improve Ultimate-Guitar.com Take our survey!
×
Author
Difficulty
intermediate
About this tab version
This is the first complete tab of this song. Was this info helpful? Yes No
Portugal. The Man
New Orleans
Censored Colors - (2008)

Tuning - EADGBe

4/4

[INTRO]

[Saxophone arranged for Guitar]

e|------------------------|-------------------------|------------------------|------------------------|
B|------------------------|-------------------------|------------------------|------------------------|
G|------------------------|-------------------------|------------------------|------------------------|
D|------------------------|-------------------------|------------------------|------------------------|
A|------------------------|-------------------------|---5h7~~~~~~~~~~~~~~~~~-|------------------------|
E|------------------------|-------------------------|------------------------|------------------------|


e|------------------------|-------------------------|------------------------|------------------------|
B|------------------------|-------------------------|------------------------|------------------------|
G|------------------------|-------------------------|------------------------|------------------------|
D|------------------------|-------------------------|------------------------|------------------------|
A|------------------10~~~~|-5~~~~~~~~~~~~-----------|-------------3~~~~~~~~~~|------------------------|
E|------------------------|-------------------------|------------------------|------------------------|



[VERSE]

[Saxophone arranged for Guitar]

e|------------------------|-------------------------|------------------------|------------------------|
B|------------------------|-------------------------|------------------------|------------------------|
G|------------------------|-------------------------|------------------------|------------------------|
D|------------------------|-------------------------|------------------------|------------------------|
A|------------------------|-------------------------|------------------------|------------------------|
E|------------------------|-------------------------|------------------------|------------------------|

               I     slip    back  down  where  we     found                                        A

e|------------------------|-------------------------|------------------------|------------------------|
B|------------------------|-------------------------|------------------------|------------------------|
G|------------------------|-------------------------|------------------------|------12/15-12-12-------|
D|------------------------|-------------------------|----------------------12h13h15-------------------|
A|------------------------|-------------------------|------------------------|------------------------|
E|------------------------|-------------------------|------------------------|------------------------|

    meter milling maze       and the rest that  we     find sound

e|------------------------|-------------------------|------------------------|------------------------|
B|------------------------|-------------------------|------------------------|------------------------|
G|------------------------|-12-(12)~~~~~~~~~--------|------------------------|-------------12\8p7~~~~~|
D|------------------------|-------------------------|------------------------|------------------------|
A|------------------------|-------------------------|------------------------|------------------------|
E|------------------------|-------------------------|------------------------|------------------------|

   Will it find us on the bottom?                     Will we fall apart useless machining the made?
                            Will it find our  way?

e|------------------------|-------------------------|------------------------|------------------------|
B|------------------------|-------------------------|------------------------|------------------------|
G|------------------------|-------------------------|------------------------|------------------------|
D|--------------------5~~~|-------------------------|------------------------|-5---7---8~~~~~~~~~~~~--|
A|------------------------|-------------------------|------------------------|------------------------|
E|------------------------|-------------------------|------------------------|------------------------|

             Find that sleep           that we lost     



[BREAK]

[Saxophone arranged for Guitar]

e|------------------------|-------------------------|------------------------|------------------------|\
B|------------------------|-------------------------|------------------------|------------------------||
G|------------------------|-------------------------|------------------------|-------12-15-15-15-15-15||
D|------------------------|-------------------------|------------------------|------------------------||
A|------------------------|-------------------------|------------------------|------------------------||
E|------------------------|-------------------------|------------------------|------------------------|| 
                                                                                                       |
[Rhythm Guitar]                                                                                        |
                                                                                                       |
e|-------3----------------|-------1-----------------|-------3----------------|-------3----------------||
B|-------3----------------|-------1-----------------|-------4----------------|-------3----------------||
G|-------3----------------|-------2-----------------|-------5----------------|-------3----------------||
D|------------------------|-------------------------|------------------------|------------------------|| 
A|------------------------|-------------------------|------------------------|------------------------|| 
E|------------------------|-------------------------|------------------------|------------------------|/

                      Na    Na    Na    Na    Na                 Na    Na      Na    Na    Na    Na



[Saxophone arranged for Guitar]

e|------------------------|-------------------------|------------------------|------------------------|\
B|------------------------|-------------------------|------------------------|--------------13-/-16---||
G|-15-15-15---------------|-------------------------|------------------------|------------------------||
D|------------------------|-------------------------|------------------------|------------------------||
A|------------------------|-------------------------|------------------------|------------------------||
E|------------------------|-------------------------|------------------------|------------------------||
                                                                                                       |
[Rhythm Guitar]                                                                                        |
                                                                                                       |
e|-------3----------------|-------1-----------------|-------3----------------|-------3----------------||
B|-------3----------------|-------1-----------------|-------4----------------|-------3----------------||
G|-------3----------------|-------2-----------------|-------5----------------|-------3----------------||
D|------------------------|-------------------------|------------------------|------------------------||
A|------------------------|-------------------------|------------------------|------------------------||
E|------------------------|-------------------------|------------------------|------------------------|/

                      Na    Na    Na    Na    Na                 Na    Na      Na    Na    Na    Na



[Saxophone arranged for Guitar]

e|------------------------|-------------------------|------------------------|------------------------|\
B|15~~~~~~~~~~~~~~~~~~----|---------------11---13---|------------------------|---------13-/-16--------||
G|------------------------|-------------------------|------------------------|------------------------||
D|------------------------|-------------------------|------------------------|------------------------|| 
A|------------------------|-------------------------|------------------------|------------------------||
E|------------------------|-------------------------|------------------------|------------------------||
                                                                                                       |
[Rhythm Guitar]                                                                                        |
                                                                                                       |
e|------3-----------------|-------1-----------------|-------3----------------|-------3----------------||
B|------3-----------------|-------1-----------------|-------4----------------|-------3----------------||
G|------3-----------------|-------2-----------------|-------5----------------|-------3----------------||
D|------------------------|-------------------------|------------------------|------------------------||
A|------------------------|-------------------------|------------------------|------------------------||
E|------------------------|-------------------------|------------------------|------------------------||
                                                                                                       |
[Lead Guitar w/ Octave Pedal]                                                                          |
                                                                                                       |
e|------------------------|-------------------------|------(8)-(10)(8)(6)----|------(8)----(6)--------||
B|------------------------|-------------------------|--------------------(8)-|--------------------(8)-||
G|------------------------|-------------------------|-------5-/-7-\-5--3-----|------/5------3---------||
D|------------------------|-------------------------|---------------------5--|---------------------5--||
A|------------------------|-------------------------|------------------------|------------------------||
E|------------------------|-------------------------|------------------------|------------------------|/

                      Na    Na    Na    Na    Na                 Na    Na      Na    Na    Na    Na



[Saxophone arranged for Guitar]

e|------------------------|-------------------------|------------------------|------------------------|\
B|-15-----------11--------|-------------------------|------------------------|----------------11h13/15||
G|-----------------12-----|-------------------------|------------------------|------------10/12-------||
D|------------------------|-------------------------|------------------------|------------------------||
A|------------------------|-------------------------|------------------------|------------------------||
E|------------------------|-------------------------|------------------------|------------------------||
                                                                                                       |
[Rhythm Guitar]                                                                                        |
                                                                                                       |
e|-------3----------------|-------1-----------------|-------3----------------|------------------------||
B|-------3----------------|-------1-----------------|-------4----------------|------------------------||
G|-------3----------------|-------2-----------------|-------5----------------|------------------------||
D|------------------------|-------------------------|------------------------|------------------------||
A|------------------------|-------------------------|------------------------|------------------------||
E|------------------------|-------------------------|------------------------|------------------------||
                                                                                                       |
[Lead Guitar w/ Octave Pedal]                                                                          |
                                                                                                       |
e|------------------------|-------------------------|------(8)-(10)(8)(6)----|------(8)----(6)--------||
B|------------------------|-------------------------|--------------------(8)-|--------------------(8)-||
G|------------------------|-------------------------|-------5-/-7-\-5--3-----|------/5------3---------||
D|------------------------|-------------------------|---------------------5--|---------------------5--||
A|------------------------|-------------------------|------------------------|------------------------||
E|------------------------|-------------------------|------------------------|------------------------|/

                      Na    Na    Na    Na    Na



[VERSE II]

[Saxophone arranged for Guitar]

e|------------------------|-------------------------|------------------------|------------------------|
B|------------------------|-------------------------|------------------------|------------------------|
G|------------------------|-------------------------|------------------------|------------------------|
D|------------------------|-------------------------|------------------------|------------------------|
A|------------------------|-------------------------|------------------------|------------------------|
E|------------------------|-------------------------|------------------------|------------------------|

                     Fair  and   tired  living                          Lives like little lifted leans 

e|------------------------|-------------------------|-15---------------------|------------------------|
B|------------------------|-------------------------|------------------------|------------------------|
G|------------------------|-------------------------|------------------------|------------------------|
D|------------------------|-------------------------|------------------------|------------------------|
A|------------------------|-------------------------|------------------------|------------------------|
E|------------------------|-------------------------|------------------------|------------------------|

                Shaking heads under the shade               Oh bright, bright, bright sweet pear trees    

e|------------------------|-------------------------|------------------------|------------------------|
B|------------------------|-------------------------|------------------------|------------------------|
G|-12~~~~~~~~---------15~~|~~~~~-14~~~~~~~~---------|------------------------|------------------------|
D|------------------------|-------------------------|----------------12-15-14|------------------------|
A|------------------------|-------------------------|------------------------|-13~~~~--10--12~~~~~~~~~|
E|------------------------|-------------------------|------------------------|------------------------|

                Mine is gone with the day                      Never miss a beat, never find a home

e|------------------------|-------------------------|------------------------|------------------------|
B|------------------------|-------------------------|------------------------|------------------------|
G|------------------------|-------------------------|------------------------|------------------------|
D|------------------------|-------------------------|------------------------|------------------------|
A|------------------------|-------------------------|------------------------|------------------------|
E|------------------------|-------------------------|------------------------|------------------------|

                Mine is gone with all time                     All ti-ime



[SAXOPHONE SOLO]

[Saxophone arranged for Guitar]

e|------------------------|
B|------------------------|
G|-12~~~~~~~~~~~~~~~~~~~~~|
D|------------------------|
A|------------------------|
E|------------------------|

[Saxophone arranged for Guitar]

e|----------------13------|------------------15---13|p11-10h11-------------10|--11p10-----------------|\
B|-------13-15-16----16-15|---------------13--------|-------------12----13---|--------13---11----11-10||
G|-12-15------------------|-------------------------|------------------------|----------------12------||
D|------------------------|-------------------------|------------------------|------------------------||
A|------------------------|-------------------------|------------------------|------------------------||
E|------------------------|-------------------------|------------------------|------------------------||
                                                                                                       |
[Rhythm Guitar]                                                                                        |
                                                                                                       |
e|-------10-10------------10-10-------------10-10---|-------10-10------------10-10------------10-10---||
B|-11-11-11-11------11-11-11-11-------11-11-11-11---|-11-11-11-11------11-11-11-11------11-11-11-11---||
G|-10-12-12-12------10-12-12-12-------10-12-12-12---|-10-12-12-12------10-12-12-12------10-12-12-12---||
D|------------------------|-------------------------|------------------------|------------------------||
A|------------------------|-------------------------|------------------------|------------------------||  
E|------------------------|-------------------------|------------------------|------------------------|/



[Saxophone arranged for Guitar]

e|------------------------|-------------------------|------------------------|------------------------|\
B|-13--11-----------------|-------------------------|------------------------|-------------10TR11-----||
G|---------12~~~~~~~~~~~~-|----7--10--8--5/7--------|---------------10-------|-------10h12------------||
D|------------------------|-------------------8-----|-7-11~~~~~~~------------|----/12-----------------||
A|------------------------|---------------------10--|------------------------|------------------------||
E|------------------------|-------------------------|------------------------|------------------------||
                                                                                                       |
[Rhythm Guitar]                                                                                        |
                                                                                                       |
e|-------10-10------------10-10-------------10-10---|-------10-10------------10-10------------10-10---||
B|-11-11-11-11------11-11-11-11-------11-11-11-11---|-11-11-11-11------11-11-11-11------11-11-11-11---||
G|-10-12-12-12------10-12-12-12-------10-12-12-12---|-10-12-12-12------10-12-12-12------10-12-12-12---||
D|------------------------|-------------------------|------------------------|------------------------||
A|------------------------|-------------------------|------------------------|------------------------||
E|------------------------|-------------------------|------------------------|------------------------|/



[CHORUS]

[Saxophone arranged for Guitar]

e|------------------------|-------------------------|------------------------|----------------------15|\
B|------------------------|-------------------------|------------------------|------------------------||
G|------------------------|-------------------------|------------------------|------------------------||
D|------------------------|-------------------------|------------------------|------------------------||
A|------------------------|-------------------------|------------------------|------------------------||
E|------------------------|-------------------------|------------------------|------------------------||
                                                                                                       |
[Rhythm Guitar]                                                                                        |
                                                                                                       |
e|-------10-10------------10-10-------------10-10---|-------10-10------------10-10------------10-10---||
B|-11-11-11-11------11-11-11-11-------11-11-11-11---|-11-11-11-11------11-11-11-11------11-11-11-11---||
G|-10-12-12-12------10-12-12-12-------10-12-12-12---|-10-12-12-12------10-12-12-12------10-12-12-12---||
D|------------------------|-------------------------|------------------------|------------------------||
A|------------------------|-------------------------|------------------------|------------------------||
E|------------------------|-------------------------|------------------------|------------------------|/

      Mother, father, brother, sister, son, daughters      We are the rabbit that let the fox lead us


[Saxophone arranged for Guitar]

e|------------------------|-------------------------|------------------------|------------------------|\
B|------------------------|-------------------------|------------------------|------------------------||
G|------------------------|-------------------------|------------------------|-------------------15---||
D|------------------------|-------------------------|------------------------|------------------------||
A|------------------------|-------------------------|------------------------|------------------------||
E|------------------------|-------------------------|------------------------|------------------------||
                                                                                                       |
[Rhythm Guitar]                                                                                        |
                                                                                                       |
e|-------10-10------------10-10-------------10-10---|-------10-10------------10-10------------10-10---||
B|-11-11-11-11------11-11-11-11-------11-11-11-11---|-11-11-11-11------11-11-11-11------11-11-11-11---||
G|-10-12-12-12------10-12-12-12-------10-12-12-12---|-10-12-12-12------10-12-12-12------10-12-12-12---||
D|------------------------|-------------------------|------------------------|------------------------||  
A|------------------------|-------------------------|------------------------|------------------------||
E|------------------------|-------------------------|------------------------|------------------------||
                                                                                                       |
[Lead Guitar w/ Octave Pedal]                                                                          |
                                                                                                       |
e|------------------------|-------------------------|------------------------|------------------------||
B|------------------------|-------------------------|------------------------|------------------------||
G|------------------------|-------------------------|------------------------|--------------0---------||
D|------------------------|-------------------------|------------------------|------------------------||
A|------------------------|-------------------------|------------------------|------------------------||  
E|------------------------|-------------------------|------------------------|--------------15\-------|/

        Out in the sun with the cold war fever    Don't need to beg for money, just please don't eat us


[GUITAR SOLO]

[Saxophone arranged for Guitar]

e|--------------13--------|-11-----------10---------|------------------------|------------------------|\
B|-15---------------------|-----------------13-11---|-11---13-----10---11----|------------------------||
G|------------------------|-----------------------12|----------------------12|----------12-10----10-10||
D|------------------------|-------------------------|------------------------|----------------12------||
A|------------------------|-------------------------|------------------------|------------------------||
E|------------------------|-------------------------|------------------------|------------------------||
                                                                                                       |
[Rhythm Guitar]                                                                                        |
                                                                                                       |
e|------------------------|-------------------------|------------------------|------------------------||
B|------------------------|-------------------------|------------------------|------------------------||
G|------------------------|-------------------------|------------------------|------------------------||
D|------------------------|-------------------------|------------------------|------------------------||
A|-------------1----------|-------------------------|-------------1----------|------------------------||
E|-3---------------------1|-3-1-3-------------1-3-1-|-3---------------------1|-3-1-3------------1-3-1-||
                                                                                                       |
[Lead Guitar w/ Octave Pedal]                                                                          |
                                                                                                       |
e|------------------------|-------------------------|------------------------|------------------------||
B|-------------3b(4)------|-------------------------|------------3b(4)-------|------------------------||
G|------------------------|-------------------------|------------------------|------------------------||
D|-------------5b(7)------|--------------3---5---3--|------------5b(7)-------|-------------3---5---3--||
A|------------------------|-------------------------|------------------------|------------------------||
E|------------------------|-------------------------|------------------------|------------------------|/



[Saxophone arranged for Guitar]                      

e|------------------------|-------------------------|------------------------|------------------------|\
B|------------------------|--------------13/15h16p15\13----------------------|------------------------||
G|-/14------------\12p10--|------10h12/15-----------|--15\12p10--------------|-10h12-----12---10h12/14|| 
D|----------------------12|---/12-------------------|----------12\10p8--8h10/12-------------12--------||
A|------------------------|-------------------------|-----------------10-----|------------------------|| 
E|------------------------|-------------------------|------------------------|------------------------||
                                                                                                       |
[Rhythm Guitar]                                                                                        |
                                                                                                       |
e|------------------------|-------------------------|------------------------|------------------------||
B|------------------------|-------------------------|------------------------|------------------------||
G|------------------------|-------------------------|------------------------|------------------------||
D|------------------------|-------------------------|------------------------|------------------3h4h5-||
A|-------------1----------|-------------------------|-------------1----------|-------------3h4h5------||
E|-3---------------------1|-3-1-3-------------1-3-1-|-3---------------------1|-3-1-3------------------||
                                                                                                       |
[Lead Guitar w/ Octave Pedal]                                                                          |
                                                                                                       |
e|------------------------|-------------------------|------------------------|------------------------||
B|-------------3b(4)------|-------------------------|------------3b(4)-------|------------------------||
G|------------------------|-------------------------|------------------------|------------------------||
D|-------------5b(7)------|--------------3---5---3--|------------5b(7)-------|-------------3---5---3--||
A|------------------------|-------------------------|------------------------|------------------------||
E|------------------------|-------------------------|------------------------|------------------------|/



[Saxophone arranged for Guitar]

e|------------------------|-------------------------|------10----------------|------------------------|\
B|------------------------|----------11---10---13---|-11--------13-10--------|------------------------||
G|------------------------|-------12----------------|-----------------10-----|-12-10-12-10-----10-----||
D|------------------------|-10-13-------------------|------------------------|-------------10-------12||
A|------------------------|-------------------------|------------------------|------------------------||
E|------------------------|-------------------------|------------------------|------------------------||
                                                                                                       |
[Rhythm Guitar]                                                                                        |
                                                                                                       |
e|------------------------|-------------------------|------------------------|------------------------||
B|------------------------|-------------------------|------------------------|------------------------||
G|------------------------|-------------------------|------------------------|------------------------||
D|------------------------|-------------------3h4h5-|------------------------|------------------3h4h5-||
A|-3-----------1----------|-3-1-3--------3h4h5------|-3-----------1----------|-3-1-3-------3h4h5------||
E|------------------------|-------------------------|------------------------|------------------------||
                                                                                                       |
[Lead Guitar w/ Octave Pedal]                                                                          |
                                                                                                       |
e|------------------------|-------------------------|------------------------|------------------------||
B|------------------------|-------------------------|------------------------|------------------------||
G|------------------------|-------------------------|------------------------|------------------------||
D|------------------------|-------------------3h4h5-|------------------------|------------------3h4h5-||
A|-3~~~~~~~~~-------------|-------------3h4h5-------|-------------3~~~~~~~~~~|-------------3h4h5------|| 
E|------------------------|-------------------------|------------------------|------------------------|/



[Saxophone arranged for Guitar]

e|------------------------|-------------------------|------------------------|-10-10------------------|\
B|------------------------|-------------------------|------------------------|-----------------13-----||
G|-10---------------------|-------------------------|------------------------|------------------------||
D|------13----------------|-12----------------------|------------------------|------------------------||
A|------------------------|-------------------------|------------------------|------------------------||
E|------------------------|-------------------------|------------------------|------------------------||
                                                                                                       |
[Rhythm Guitar]                                                                                        |
                                                                                                       |
e|------------------------|-------------------------|------------------------|------------------------||
B|------------------------|-------------------------|------------------------|------------------------||
G|------------------------|-------------------------|------------------------|------------------------||
D|------------------------|-------------------------|------------------------|------------------3h4h5-||
A|-------------1----------|-------------------------|-------------1----------|-------------3h4h5------||
E|-3---------------------1|-3-1-3-------------1-3-1-|-3---------------------1|-3-1-3------------------||
                                                                                                       |
[Lead Guitar w/ Octave Pedal]                                                                          |
                                                                                                       |
e|------------------------|-------------------------|------------------------|------------------------||
B|-------------3b(4)------|-------------------------|------------3b(4)-------|------------------------||
G|------------------------|-------------------------|------------------------|------------------------||
D|-------------5b(7)------|--------------3---5---3--|------------5b(7)-------|-------------3---5---3--||
A|------------------------|-------------------------|------------------------|------------------------||  
E|------------------------|-------------------------|------------------------|------------------------|/ 



[OUTRO]

[Saxophone arranged for Guitar]

e|------------------------|-------------------------|------------------------|-------------10-10------|\
B|------------------------|-------------------------|------------------------|-------------------13-13||
G|-12---------------------|-------------------------|------------------------|------------------------||
D|------------------------|-------------------------|------------------------|------------------------||
A|------------------------|-------------------------|------------------------|------------------------||
E|------------------------|-------------------------|------------------------|------------------------||
                                                                                                       |
[RHYTHM GUITAR]                                                                                        |
                                                                                                       |
e|-------------3-----6----|-5-----------3-----------|-------------3-----6----|-5-----------3----------||
B|-------3----------------|-------3------------3----|-------4----------------|-------4-----------4----||
G|-3----------------------|-------------------------|-5----------------------|------------------------||
D|------------------------|-------------------------|------------------------|------------------------||
A|------------------------|-------------------------|------------------------|------------------------||
E|------------------------|-------------------------|------------------------|------------------------|/

         Deaf  like  the  big  guns  foaming                At  the  mouth  they're  gnashing


[Saxophone arranged for Guitar]

e|------------------------|-------------------------|------------------------|------------------------|\
B|------------------------|-------------------------|------------------------|-------------------15---||
G|-12---------------------|-------------------------|------------------------|-------12-15-12-15------||
D|------------------------|-------------------------|------------------------|----13------------------||
A|------------------------|-------------------------|------------------------|------------------------||
E|------------------------|-------------------------|------------------------|------------------------||
                                                                                                       |
[RHYTHM GUITAR]                                                                                        |
                                                                                                       |
e|-------------3-----6----|-5-----------3-----------|-------------3-----6----|-5-----------3----------||
B|-------3----------------|-------3------------3----|-------4----------------|-------4-----------4----||
G|-3----------------------|-------------------------|-5----------------------|------------------------||
D|------------------------|-------------------------|------------------------|------------------------||
A|------------------------|-------------------------|------------------------|------------------------||
E|------------------------|-------------------------|------------------------|------------------------|/

         Quiet  like  our  words  that  roam                and  roll  about


[Saxophone arranged for Guitar]

e|------------------------|-------------------------|------------------------|------------------------|\
B|------------------------|-------------------------|------------------------|------------11-13--13\11||
G|------------------------|-------------------------|----------------------10|-12---------------------||
D|------------------------|-------------------------|----------------12-13---|------------------------||
A|------------------------|-------------------------|------------------------|------------------------||
E|------------------------|-------------------------|------------------------|------------------------||
                                                                                                       |
[RHYTHM GUITAR]                                                                                        |
                                                                                                       |
e|-------------3-----6----|-5-----------3-----------|-------------3-----6----|-5-----------3----------||
B|-------3----------------|-------3------------3----|-------4----------------|-------4-----------4----||
G|-3----------------------|-------------------------|-5----------------------|------------------------||
D|------------------------|-------------------------|------------------------|------------------------||
A|------------------------|-------------------------|------------------------|------------------------||
E|------------------------|-------------------------|------------------------|------------------------|/

         Let's  march  a  train  of  thought                To crack the bodes that keep us down 


[Saxophone arranged for Guitar]

e|------------------------|-10----------------------|-------15-------------13|---13\11-----10h11p10---|\
B|------------------------|-------13----------------|------------------------|------------------------||
G|-12---------------------|-------------------------|------------------------|------------------------||
D|------------------------|-------------------------|------------------------|------------------------||
A|------------------------|-------------------------|------------------------|------------------------||
E|------------------------|-------------------------|------------------------|------------------------|| 
                                                                                                       |
[RHYTHM GUITAR]                                                                                        |
                                                                                                       |
e|-------------3-----6----|-5-----------3-----------|-------------3-----6----|-5-----------3----------||
B|-------3----------------|-------3------------3----|-------4----------------|-------4-----------4----||
G|-3----------------------|-------------------------|-5----------------------|------------------------||
D|------------------------|-------------------------|------------------------|------------------------||
A|------------------------|-------------------------|------------------------|------------------------||
E|------------------------|-------------------------|------------------------|------------------------|/

         Then we'll find that sleep we lost                 We lost





************************************

| x   Dead note
| (n) Ghost note
| h   Hammer-on
| p   Pull-off
| b   Bend
| /   Slide up
| \   Slide down
| ~   Vibrato
| TR  Trill

************************************
Suggest correction
Give kudos to tab author, rate the tab!
1 2 3 4 5
comments
print report bad tab
guest
You may want to rate the tab now too:
select rating
Wanna post a correction for this tab? Suggest correction