Oops, an error
Loading. Please wait.

People Say bass

version 2
version 2

Whole song

Interactive

3,581 views 9 this week
3 commentsread comments
1 2 3 4 5
x 4
add to favorites
×
Save as Personal and add changes to this tab that will be seen only by you. Learn more ›
×
You can save this tab as Personal to edit and correct it or add notes. All changes will be seen only by you. Learn more »
launch autoscroll
font size
0
reset
guitar tuner
edit
Autoscroll
slow
fast
+/-
esc
set tempo
stop
Author
Difficulty
Portugal. The Man
People Say Bass Tab
Confirmed correct from the bassist himself.
Email me: aaroncbuchanan@yahoo.com
See how it's done: http://www.youtube.com/user/aar0npl0x

Intro:

|---------------------|
|------------5h7-7-5--|
|----3h5p3~~~---------|
|-3h5-----------------|


Pre-Verse Thingy:

|-----------------------------------------------------5h7p5---------------------|
|-----------------------5h7p5------------------------------7--------------------|
|-3-3---3h5---------5-5------7p5-------5~~~5-5---------------5~~~5-5------------|
|-----------3-3---3--------------5-5~~5--------5~~~5----------------5~~~5--0////|

Verse
|-----------------------------------------------5h7p5-----------------------------|
|-----------------------------------------------------7-------------5h7-5---------|
|-3-3---3h5---------5-5~~5-7-------5~~~5-5-------------5~~~5-5------------7-5-----|
|-----------3-3---3----------5-5~~5--------5~~~5--------------5~~~5-----------3/5-|




Chorus:

|------------------------------------------------------------------------------------------------|
|----------------------------------------------------------------------------------5h7p5h7p5-----|
|-----------------------3-3--2-2--2-3~3--3-3-3-2-----------------------3-3--2/5x13----------7-5--|
|5-5~~~5-0-0~~~0-1-1~~~1------------------------5-5~~~5-0-0~~~0-1-1~~~1--------------------------|

TIME TO JAM (Imagine Learning This By Ear Like I Did)

|-----------5h7p5-------------5h7p5-------------------------|
|----------5-----5p3--------5------5p3----------------------|
|--3--0-0-5---------3--0-0-5----------3--0-0-5-----3--------|
|----------------------------------------------3-5---5-3-0--|

Sound Familiar?

|---------------------|
|------------5h7-7-5--|
|----3h5p3~~~---------|
|-3h5-----------------|

Verse
|---------------------------------------------------5h7p5-----------------------------|
|-----------------------5h7p5-----------------------------7-------------5h7-5---------|
|-3-3---3h5---------5-5------7p5-------5~~~5-5-------------5~~~5-5------------7-5-----|
|-----------3-3---3--------------5-5~~5--------5~~~5--------------5~~~5-----------3/5-|

Chorus
|----------------------------------------------------------------------------------------|
|----------------------------------------------------------------------------------------|
|-----------------------3-3--5--5-5-------3~3--3-3-3-2-----------------------3-3--2/5x16-|
|5-5~~~5-0-0~~~0-1-1~~~1------------3--3-3------------5-5~~~5-0-0~~~0-1-1~~~1------------|

Verse x2
|---------------------------------------------------5h7p5-----------------------------|
|-----------------------5h7p5-----------------------------7-------------5h7-5---------|
|-3-3---3h5---------5-5------7p5-------5~~~5-5-------------5~~~5-5------------7-5-----|
|-----------3-3---3--------------5-5~~5--------5~~~5--------------5~~~5-----------3/5-|

Finale Chorus

|------------------------------------------|
|------------------------------------------|
|-----------------------3-3-2/5--5-5-------|
|5-5~~~5-0-0~~~0-1-1~~~1------------3--3-3-|

---------------------------------------------------------------------------------------------|
---------------------------------------------------------------------------------------------|
3~3--3-3-3-2-----------------------3-3--5--5-5-------3~3--3-3-3-2/5--5-5-------3~3--3-3-3-2--|
-----------5-5~~~5-0-0~~~0-1-1~~~1------------3--3-3--------------------3--3-3---------------|

|-------------------------------------------|
|-------------------------------------------|
|-----------------------3-3--2--------------|
|5-5~~~5-0-0~~~0-1-1~~~1-------5-5~~~5-0-0~-|

--------------------------------------------------------------------------|
--------------------------------------------------------------------------|
-----------3-3--2------------------------3-3--2/5--5-5-------3~3--3-3-3-2-|
~~0-1-1~~~1-------5-5~~~5-0-0~~~0-1-1~~~1-------------3--3-3--------------|

|--------------------|
|--------------------|
|5--5-5---------3~~~~|
|------3--3---3------|

            
            
Suggest correction
Creating personal tab
Creating personal tab
You can edit any tab online and save it as your Personal.

You can edit, replace or remove any tab part or add personal notes – all changes will be seen only by you.

Personal tabs can be accessed anytime from any device, even offline.
Learn more »
comments
print report bad tab
3 comments total.
0 reply
aaronplox 31 Aug 29, 2013 11:30 PM

|-----------5h7p5-------------5h7p5-------------------------|
|----------5-----7p5--------5------5p3----------------------|
|--3--0-0-5---------3--0-0-5----------3--0-0-5-----3--------|
|----------------------------------------------3-5---5-3-0--|

0 reply
aaronplox 31 Aug 29, 2013 11:31 PM

|-----------5h7p5-------------5h7p5-------------------------|
|----------5-----7p5--------5------7p5----------------------|
|--3--0-0-5---------3--0-0-5----------3--0-0-5-----3--------|
|----------------------------------------------3-5---5-3-0--|

0 reply
aaronplox 31 Aug 29, 2013 11:31 PM

There was a correction I had to make, sorry for the inconvenience.

guest
You may want to rate the tab now too:
select rating
Wanna post a correction for this tab? Suggest correction