Oops, an error
Loading. Please wait.

Smile Tab

43 views 3 this week
no commentswrite comment
1 2 3 4 5
3 more votes to show rating
add to favorites
launch autoscroll
font size
0
reset
how to read this tab
guitar tuner
Autoscroll
slow
fast
+/-
esc
set tempo
stop
Help us to improve Ultimate-Guitar.com Take our survey!
×
Author
Difficulty
advanced
Sounds good to me. This took a lot of time and effort so enjoy! A good Rating helps

Use bar chords for all chords as well

  Bm                       F#m/A                    G                    
e|---------2-----------2-----------2------------2-----------3-----------3---|
B|---3-----------3-----------2------------2-----------3-----------3---------|
G|-----4-----3-----4-----3-----2-----2------2-----2-----4-----5-----4-----5-|
D|-------4-----------4-----------4------------4-----------5-----------5-----|
A|-2-----------2-----------0-----------0------------5-----------5-----------|
E|--------------------------------------------------------------------------|

  D            F#
e|---------7-----------2---|
B|---7-----------2---------|
G|-----7-----7-----3-----4-|
D|-------7-----------4-----|
A|-5-----------------------|
E|-------------2-----------|

F#m/A

e|-2-|
B|-2-|
G|-2-|
D|-3-|
A|-0-|
E|-X-|
Suggest correction
Give kudos to tab author, rate the tab!
1 2 3 4 5
comments
print report bad tab
guest
You may want to rate the tab now too:
select rating
Wanna post a correction for this tab? Suggest correction