Oops, an error
Loading. Please wait.

Stables And Chairs Tab

10 views 1 this week
no commentswrite comment
1 2 3 4 5
3 more votes to show rating
add to favorites
launch autoscroll
font size
0
reset
how to read this tab
guitar tuner
Autoscroll
slow
fast
+/-
esc
set tempo
stop
Help us to improve Ultimate-Guitar.com Take our survey!
×
Author
Difficulty
intermediate
About this tab version
This is the first complete tab of this song. Was this info helpful? Yes No
Portugal. The Man
Stables and Chairs
Waiter - "You Vultures" (2006)

Tuning - EADGBe

3/4

[INTRO]

e|-------------12---------|-------------12---------|-------------10---------|------------------------|
B|------------------------|------------------------|------------------------|-------------12---------|
G|------------------------|------------------------|------------------------|------------------------|
D|---------10------10-----|---------10------10-----|---------9--------9-----|---------10------10-----|
A|-12---------------------|-11---------------------|-10---------------------|-9----------------------|
E|------------------------|------------------------|------------------------|------------------------|

e|-------------12---------|-------------12---------|-------------10---------|------------------------|
B|------------------------|------------------------|------------------------|-------------12---------|
G|------------------------|------------------------|------------------------|------------------------|
D|---------10------10-----|---------10------10-----|---------9--------9-----|---------10------10-----|
A|-12---------------------|-11---------------------|-10---------------------|-9----------------------|
E|------------------------|------------------------|------------------------|------------------------|



[VERSE]

[Guitar 1]

e|-------------12---------|-------------12---------|-------------10---------|------------------------|\
B|------------------------|------------------------|------------------------|-------------12---------| \
G|------------------------|------------------------|------------------------|------------------------|  |
D|---------10------10-----|---------10------10-----|---------9--------9-----|---------10------10-----|  |
A|-12---------------------|-11---------------------|-10---------------------|-9----------------------|  |
E|------------------------|------------------------|------------------------|------------------------|  |
                                                                                                        |
[Guitar 2]                                                                                              |
                                                                                                        |
e|------------------------|------------------------|------------------------|------------------------|  |
B|---0--------------------|------------------------|------------------------|------------------------|  |
G|--5---------------------|------------------------|------------------------|------------------------|  |
D|-7----------------------|------------------------|------------------------|------------------------|  |
A|------------------------|------------------------|------------------------|------------------------| /
E|------------------------|------------------------|------------------------|------------------------|/

                   I        met      a       face                             ring    round  -ed  
  


[Guitar 1]

e|-------------12---------|-------------12---------|-------------10---------|------------------------|\
B|------------------------|------------------------|------------------------|-------------12---------| \
G|------------------------|------------------------|------------------------|------------------------|  |
D|---------10------10-----|---------10------10-----|---------9--------9-----|---------10------10-----|  |
A|-12---------------------|-11---------------------|-10---------------------|-9----------------------|  |
E|------------------------|------------------------|------------------------|------------------------|  |
                                                                                                        |
[Guitar 2]                                                                                              |
                                                                                                        |
e|------------------------|------------------------|------------------------|------------------------|  |
B|------------------------|------------------------|------------------------|------------------------|  |
G|------------------------|------------------------|------------------------|------------------------|  |
D|------------------------|------------------------|------------------------|------------------------|  |
A|------------------------|------------------------|------------------------|------------------------| /
E|------------------------|------------------------|------------------------|------------------------|/

   pocket  eyes                                                               The     shape    folded



[Guitar 1]

e|-------------12---------|-------------12---------|-------------10---------|------------------------|\
B|------------------------|------------------------|------------------------|-------------12---------| \
G|------------------------|------------------------|------------------------|------------------------|  |
D|---------10------10-----|---------10------10-----|---------9--------9-----|---------10------10-----|  |
A|-12---------------------|-11---------------------|-10---------------------|-9----------------------|  |
E|------------------------|------------------------|------------------------|------------------------|  |
                                                                                                        |
[Guitar 2]                                                                                              |
                                                                                                        |
e|------------------------|------------------------|------------------------|------------------------|  |
B|------------------------|------------------------|------------------------|------------------------|  |
G|------------------------|------------------------|------------------------|------------------------|  |
D|------------------------|------------------------|------------------------|------------------------|  |
A|------------------------|------------------------|------------------------|------------------------| /
E|------------------------|------------------------|------------------------|------------------------|/

   banks           in      -side                                      and     shiv   -ered 



[Guitar 1]

e|-------------12---------|-------------12---------|-------------10---------|------------------------|\
B|------------------------|------------------------|------------------------|-------------12---------| \
G|------------------------|------------------------|------------------------|------------------------|  |
D|---------10------10-----|---------10------10-----|---------9--------9-----|---------10------10-----|  |
A|-12---------------------|-11---------------------|-10---------------------|-9----------------------|  |
E|------------------------|------------------------|------------------------|------------------------|  |
                                                                                                        |
[Guitar 2]                                                                                              | 
                                                                                                        |
e|------------------------|------------------------|------------------------|------------------------|  |
B|------------------------|------------------------|------------------------|------------------------|  |
G|------------------------|------------------------|------------------------|------------------------|  |
D|------------------------|------------------------|------------------------|------------------------|  |
A|------------------------|------------------------|------------------------|------------------------| /
E|------------------------|------------------------|------------------------|------------------------|/

   out                      thoughts                                                  They    went



[Guitar 1]

e|-------------12---------|-------------12---------|-------------10---------|------------------------|\
B|------------------------|------------------------|------------------------|-------------12---------| \
G|------------------------|------------------------|------------------------|------------------------|  |
D|---------10------10-----|---------10------10-----|---------9--------9-----|---------10------10-----|  |
A|-12---------------------|-11---------------------|-10---------------------|-9----------------------|  |
E|------------------------|------------------------|------------------------|------------------------|  |
                                                                                                        |
[Guitar 2]                                                                                              |
                                                                                                        |
e|------------------------|------------------------|------------------------|------------------------|  |
B|------------------------|------------------------|------------------------|------------------------|  |
G|------------------------|------------------------|------------------------|------------------------|  |
D|------------------------|------------------------|------------------------|------------------------|  |
A|------------------------|------------------------|------------------------|------------------------| /
E|------------------------|------------------------|------------------------|------------------------|/

   golden           and     pale    wind    whis    -pers    breathe          New Orleans



[Guitar 1]

e|-------------12---------|-------------12---------|-------------10---------|------------------------|\
B|------------------------|------------------------|------------------------|-------------12---------| \
G|------------------------|------------------------|------------------------|------------------------|  |
D|---------10------10-----|---------10------10-----|---------9--------9-----|---------10------10-----|  |
A|-12---------------------|-11---------------------|-10---------------------|-9----------------------|  |
E|------------------------|------------------------|------------------------|------------------------|  |
                                                                                                        |
[Guitar 2]                                                                                              |
                                                                                                        |
e|------------------------|------------------------|------------------------|------------------------|  |
B|------------------------|------------------------|------------------------|------------------------|  |
G|------------------------|------------------------|------------------------|------------------------|  |
D|------------------------|------------------------|------------------------|------------------------|  |
A|------------------------|------------------------|------------------------|------------------------| /
E|------------------------|------------------------|------------------------|------------------------|/

   Through basements and    race   -tracks   met      hollowed out    from    stretching      mouths 



[Guitar 1]

e|------------------------|------------------------|------------------------|------------------------|\
B|------------------------|------------------------|------------------------|------------------------| \
G|------------------------|------------------------|------------------------|------------------------|  |
D|-10------10------10-----|-10------10------10-----|-10------10------10-----|-10---\-----------------|  |
A|-12------12------12-----|-12------12------12-----|-12------12------12-----|-12---\-----------------|  |
E|------------------------|------------------------|------------------------|------------------------|  |
                                                                                                        |
[Guitar 2]                                                                                              |
                                                                                                        |
e|------------------------|------------------------|------------------------|------------------------|  |
B|------------------------|------------------------|------------------------|------------------------|  |
G|-5-------5-------5------|-5-------5-------5------|-5-------5-------5------|-5----\-----------------|  |
D|-7-------7-------7------|-7-------7-------7------|-7-------7-------7------|-7----\-----------------|  |
A|------------------------|------------------------|------------------------|------------------------| /
E|------------------------|------------------------|------------------------|------------------------|/




[VERSE II]

[Guitar 1]

e|-------------12---------|-------------12---------|-------------10---------|------------------------|\
B|------------------------|------------------------|------------------------|-------------12---------| \ 
G|------------------------|------------------------|------------------------|------------------------|  |
D|---------10------10-----|---------10------10-----|---------9--------9-----|---------10------10-----|  |
A|-12---------------------|-11---------------------|-10---------------------|-9----------------------|  |
E|------------------------|------------------------|------------------------|------------------------|  |
                                                                                                        |
[Guitar 2]                                                                                              |
                                                                                                        |
e|------------------------|------------------------|------------------------|------------------------|  |
B|------------------------|------------------------|------------------------|------------------------|  |
G|------------------------|------------------------|------------------------|------------------------|  | 
D|------------------------|------------------------|------------------------|------------------------|  |
A|------------------------|------------------------|------------------------|------------------------| /
E|------------------------|------------------------|------------------------|------------------------|/

           All     these    thoughts         were    rolled  onto    need    -les             That



[Guitar 1]

e|-------------12---------|-------------12---------|-------------10---------|------------------------|\
B|------------------------|------------------------|------------------------|-------------12---------| \
G|------------------------|------------------------|------------------------|------------------------|  |
D|---------10------10-----|---------10------10-----|---------9--------9-----|---------10------10-----|  |
A|-12---------------------|-11---------------------|-10---------------------|-9----------------------|  |
E|------------------------|------------------------|------------------------|------------------------|  |
                                                                                                        |
[Guitar 2]                                                                                              |
                                                                                                        |
e|------------------------|------------------------|------------------------|------------------------|  |
B|------------------------|------------------------|------------------------|------------------------|  |
G|------------------------|------------------------|------------------------|------------------------|  |
D|------------------------|------------------------|------------------------|------------------------|  |
A|------------------------|------------------------|------------------------|------------------------| /
E|------------------------|------------------------|------------------------|------------------------|/

           spilled from     head                     tumb   -le       like    apples          Fell



[Guitar 1]

e|-------------12---------|-------------12---------|-------------10---------|------------------------|\
B|------------------------|------------------------|------------------------|-------------12---------| \
G|------------------------|------------------------|------------------------|------------------------|  |
D|---------10------10-----|---------10------10-----|---------9--------9-----|---------10------10-----|  |
A|-12---------------------|-11---------------------|-10---------------------|-9----------------------|  |
E|------------------------|------------------------|------------------------|------------------------|  |
                                                                                                        |
[Guitar 2]                                                                                              |
                                                                                                        |
e|------------------------|------------------------|------------------------|------------------------|  |
B|---0--------------------|------------------------|------------------------|------------------------|  |
G|--5---------------------|------------------------|------------------------|------------------------|  |
D|-7----------------------|------------------------|------------------------|------------------------|  |
A|------------------------|------------------------|------------------------|------------------------| /
E|------------------------|------------------------|------------------------|------------------------|/

   into    the     sky                               that's  where    he'll   hide             Where



[Guitar 1]

e|-------------12---------|-------------12---------|-------------10---------|------------------------|\
B|------------------------|------------------------|------------------------|-------------12---------| \
G|------------------------|------------------------|------------------------|------------------------|  |
D|---------10------10-----|---------10------10-----|---------9--------9-----|---------10------10-----|  |
A|-12---------------------|-11---------------------|-10---------------------|-9----------------------|  |
E|------------------------|------------------------|------------------------|------------------------|  |
                                                                                                        |
[Guitar 2]                                                                                              |
                                                                                                        |
e|------------------------|------------------------|------------------------|------------------------|  |
B|------------------------|------------------------|------------------------|------------------------|  |
G|------------------------|------------------------|------------------------|------------------------|  |
D|------------------------|------------------------|------------------------|------------------------|  |
A|------------------------|------------------------|------------------------|------------------------| /
E|------------------------|------------------------|------------------------|------------------------|/

   rubies          turned   diamonds         like    textures         like    sunshine        he'll



[Guitar 1]

e|-------------12---------|-------------12---------|-------------10---------|------------------------|\
B|------------------------|------------------------|------------------------|-------------12---------| \
G|------------------------|------------------------|------------------------|------------------------|  |
D|---------10------10-----|---------10------10-----|---------9--------9-----|---------10------10-----|  |
A|-12---------------------|-11---------------------|-10---------------------|-9----------------------|  |
E|------------------------|------------------------|------------------------|------------------------|  |
                                                                                                        |
[Guitar 2]                                                                                              |
                                                                                                        |
e|------------------------|------------------------|------------------------|------------------------|  |
B|------------------------|------------------------|------------------------|------------------------|  |
G|------------------------|------------------------|------------------------|------------------------|  |
D|------------------------|------------------------|------------------------|------------------------|  | 
A|------------------------|------------------------|------------------------|------------------------| /
E|------------------------|------------------------|------------------------|------------------------|/

   stay                             Behind           hands   arms     lift    into    it's    own

[Guitar 1]

e|-------------12---------|-------------12---------|-------------10---------|------------------------|\
B|------------------------|------------------------|------------------------|-12------12---12-----12-| \
G|------------------------|------------------------|------------------------|-x-------x----x------x--|  |
D|---------10------10-----|---------10------10-----|---------9--------9-----|-10------10---10-----10-|  |
A|-12---------------------|-11---------------------|-10---------------------|-9-------9----9------9--|  |
E|------------------------|------------------------|------------------------|------------------------|  |
                                                                                                        |
[Guitar 2]                                                                                              |
                                                                                                        |
e|------------------------|------------------------|------------------------|-7-------7----7------7--|  |
B|------------------------|------------------------|------------------------|-0-------0----0------0--|  |
G|------------------------|------------------------|------------------------|-x-------x----x------x--|  |
D|------------------------|------------------------|------------------------|-10------10---10-----10-|  |
A|------------------------|------------------------|------------------------|-9-------9----9------9--| /
E|------------------------|------------------------|------------------------|------------------------|/

                                    Behind           hands   arms     lift    into    it's  



[Guitar 1]

e|------------------------|------------------------|------------------------|\
B|-12------12---12-----12-|-12------12---12-----12-|-12---------------------| \
G|-x-------x----x------x--|-x-------x----x------x--|-x----------------------|  |
D|-10------10---10-----10-|-10------10---10-----10-|-10---------------------|  |
A|-9-------9----9------9--|-9-------9----9------9--|-9----------------------|  |
E|------------------------|------------------------|------------------------|  |
                                                                               |
[Guitar 2]                                                                     |
                                                                               |
e|-7-------7----7------7--|-7-------7----7------7--|-7----------------------|  |
B|-0-------0----0------0--|-0-------0----0------0--|-0----------------------|  |
G|-x-------x----x------x--|-x-------x----x------x--|-x----------------------|  |
D|-10------10---10-----10-|-10------10---10-----10-|-10---------------------|  |
A|-9-------9----9------9--|-9-------9----9------9--|-9----------------------| /
E|------------------------|------------------------|------------------------|/

                                                     own


[CHORUS]

[Guitar 1]

e|-5-------------5--5--5--|-5-------7------8-------|-10------------10-10-10-|-12------13------10-----|\
B|-5-------------5--5--5--|-5-------5------5-------|-10------------10-10-10-|-10------10------10-----| \
G|-5-------------5--5--5--|-5-------5------5-------|-10------------10-10-10-|-10------10------10-----|  |
D|-7-------------7--7--7--|-7-------7------7-------|-12------------12-12-12-|-12------12------12-----|  |
A|------------------------|------------------------|------------------------|------------------------|  |  
E|------------------------|------------------------|------------------------|------------------------|  |
                                                                                                        |
[Guitar 2]                                                                                              |
                                                                                                        |
e|-0-------------0--0--0--|-0-------0-------0------|-1-------------1--1--1--|-1-------1-------1------|  |
B|-1-------------1--1--1--|-1-------1-------1------|-3-------------3--3--3--|-3-------3-------3------|  |
G|-2-------------2--2--2--|-2-------2-------2------|-2-------------2--2--2--|-2-------2-------2------|  |
D|-2-------------2--2--2--|-2-------2-------2------|-0-------------0--0--0--|-0-------0-------0------|  |
A|-0-------------0--0--0--|-0-------0-------0------|-0-------------0--0--0--|-0-------0-------0------|  |
E|------------------------|------------------------|------------------------|------------------------|  |
                                                                                                        |
[Midi Keyboard arranged as Guitar]                                                                      |
                                                                                                        |
e|------------------------|------------------------|------------------------|------------------------|  |
B|/13------12------10-----|------------------------|/13------12------10-----|------------------------|  |
G|------------------------|-9----------------------|------------------------|-10---------------------|  |
D|------------------------|------------------------|------------------------|------------------------|  |
A|------------------------|------------------------|------------------------|------------------------| /
E|------------------------|------------------------|------------------------|------------------------|/

                            And      as     the      sta    -di     -um       sheds   out     the



[Guitar 1]

e|-3-------------3--3--3--|-7-------5-------3------|-5-------------5--5--5--|-7----7--7----7--7----8-|\
B|-3-------------3--3--3--|-3-------3-------3------|-5-------------5--5--5--|-5----5--5----5--5----5-| \
G|-4-------------4--4--4--|-4-------4-------4------|-5-------------5--5--5--|-5----5--5----5--5----5-|  |
D|-5-------------5--5--5--|-5-------5-------5------|-7-------------7--7--7--|-7----7--7----7--7----7-|  |
A|------------------------|------------------------|------------------------|------------------------|  |
E|------------------------|------------------------|------------------------|------------------------|  |
                                                                                                        |
[Guitar 2]                                                                                              |
                                                                                                        |
e|-3-------------3--3--3--|-3-------3-------3------|-0-------------0--0--0--|-0-------0-------0------|  |
B|-3-------------3--3--3--|-3-------3-------3------|-1-------------1--1--1--|-1-------1-------1------|  |
G|-0-------------0--0--0--|-0-------0-------0------|-2-------------2--2--2--|-2-------2-------2------|  |
D|-0-------------0--0--0--|-0-------0-------0------|-2-------------2--2--2--|-2-------2-------2------|  |
A|-2-------------2--2--2--|-2-------2-------2------|-0-------------0--0--0--|-0-------0-------0------|  |
E|-3-------------3--3--3--|-3-------3-------3------|------------------------|------------------------|  |
                                                                                                        |
[Midi Keyboard arranged as Guitar]                                                                      |
                                                                                                        |
e|------------------------|------------------------|------------------------|------------------------|  |
B|/13------12------10-----|------------------------|/10---------------------|------------------------|  |
G|------------------------|-10---------------------|---------10------7------|-9----------------------|  |
D|------------------------|------------------------|------------------------|---------10------7------|  |
A|------------------------|------------------------|------------------------|------------------------| /
E|------------------------|------------------------|------------------------|------------------------|/

   crowd                    into    the    street



[Guitar 1]

e|-5-------------5--5--5--|-5-------7------8-------|-10------------10-10-10-|-12------13------10-----|\
B|-5-------------5--5--5--|-5-------5------5-------|-10------------10-10-10-|-10------10------10-----| \
G|-5-------------5--5--5--|-5-------5------5-------|-10------------10-10-10-|-10------10------10-----|  |
D|-7-------------7--7--7--|-7-------7------7-------|-12------------12-12-12-|-12------12------12-----|  |
A|------------------------|------------------------|------------------------|------------------------|  |
E|------------------------|------------------------|------------------------|------------------------|  |
                                                                                                        |
[Guitar 2]                                                                                              |
                                                                                                        |
e|-0-------------0--0--0--|-0-------0-------0------|-1-------------1--1--1--|-1-------1-------1------|  |
B|-1-------------1--1--1--|-1-------1-------1------|-3-------------3--3--3--|-3-------3-------3------|  |
G|-2-------------2--2--2--|-2-------2-------2------|-2-------------2--2--2--|-2-------2-------2------|  |
D|-2-------------2--2--2--|-2-------2-------2------|-0-------------0--0--0--|-0-------0-------0------|  |
A|-0-------------0--0--0--|-0-------0-------0------|-0-------------0--0--0--|-0-------0-------0------|  |
E|------------------------|------------------------|------------------------|------------------------|  |
                                                                                                        |
[Midi Keyboard arranged as Guitar]                                                                      |
                                                                                                        |
e|------------------------|------------------------|------------------------|------------------------|  |
B|/13------12------10-----|------------------------|/13------12------10-----|------------------------|  |
G|------------------------|-9----------------------|------------------------|-10---------------------|  |
D|------------------------|------------------------|------------------------|------------------------|  |
A|------------------------|------------------------|------------------------|------------------------| /
E|------------------------|------------------------|------------------------|------------------------|/

                        And out     of      the      throats                  tongues licking down



[Guitar 1]

e|-3-------------3--3--3--|-7-------5-------3------|\
B|-3-------------3--3--3--|-3-------3-------3------| \
G|-4-------------4--4--4--|-4-------4-------4------|  |
D|-5-------------5--5--5--|-5-------5-------5------|  |
A|------------------------|------------------------|  |
E|------------------------|------------------------|  |
                                                      |
[Guitar 2]                                            |
                                                      |
e|-3-------------3--3--3--|-3-------3-------3------|  |
B|-3-------------3--3--3--|-3-------3-------3------|  |
G|-0-------------0--0--0--|-0-------0-------0------|  |
D|-0-------------0--0--0--|-0-------0-------0------|  |
A|-2-------------2--2--2--|-2-------2-------2------|  |
E|-3-------------3--3--3--|-3-------3-------3------|  |
                                                      |
[Midi Keyboard arranged as Guitar]                    |
                                                      |
e|------------------------|------------------------|  |
B|/13------12------10-----|------------------------|  |
G|------------------------|-10---------------------|  |
D|------------------------|------------------------|  |
A|------------------------|------------------------| /
E|------------------------|------------------------|/

                   What    will    I        Be



[Guitar 1]

e|-------------12---------|-------------12---------|-------------10---------|------------------------|\
B|------------------------|------------------------|------------------------|-------------12---------| \
G|------------------------|------------------------|------------------------|------------------------|  |
D|---------10------10-----|---------10------10-----|---------9--------9-----|---------10------10-----|  |
A|-12---------------------|-11---------------------|-10---------------------|-9----------------------|  |
E|------------------------|------------------------|------------------------|------------------------|  |
                                                                                                        |
[Guitar 2]                                                                                              |
                                                                                                        |
e|-0----------------------|------------------------|------------------------|------------------------|  |
B|-1----------------------|------------------------|------------------------|------------------------|  |
G|-2----------------------|------------------------|------------------------|------------------------|  |
D|-2----------------------|------------------------|------------------------|------------------------|  |
A|-0----------------------|------------------------|------------------------|------------------------|  |
E|------------------------|------------------------|------------------------|------------------------|  |
                                                                                                        |
[Midi Keyboard arranged as Guitar]                                                                      |
                                                                                                        |
e|------------------------|------------------------|------------------------|------------------------|  |
B|/10---------------------|------------------------|/10---------------------|------------------------|  |
G|---------10------7------|-9----------------------|---------10------7-FADE-|------------------------|  |
D|------------------------|--------10------7-------|------------------------|------------------------|  |
A|------------------------|------------------------|------------------------|------------------------| /
E|------------------------|------------------------|------------------------|------------------------|/

  -come  



[Guitar 1]

e|-------------12---------|-------------12---------|-------------10---------|------------------------|\
B|------------------------|------------------------|------------------------|-------------12---------| \
G|------------------------|------------------------|------------------------|------------------------|  |
D|---------10------10-----|---------10------10-----|---------9--------9-----|---------10------10-----|  |
A|-12---------------------|-11---------------------|-10---------------------|-9----------------------|  |
E|------------------------|------------------------|------------------------|------------------------|  |
                                                                                                        |
[Guitar 2]                                                                                              |
                                                                                                        |
e|------------------------|------------------------|------------------------|------------------------|  |
B|------------------------|------------------------|------------------------|------------------------|  |
G|------------------------|------------------------|------------------------|------------------------|  |
D|------------------------|------------------------|------------------------|------------------------|  |
A|------------------------|------------------------|------------------------|------------------------| /
E|------------------------|------------------------|------------------------|------------------------|/



{VERSE III]

[Guitar 1]

e|-------------12---------|-------------12---------|-------------10---------|------------------------|\
B|------------------------|------------------------|------------------------|-------------12---------| \
G|------------------------|------------------------|------------------------|------------------------|  |
D|---------10------10-----|---------10------10-----|---------9--------9-----|---------10------10-----|  |
A|-12---------------------|-11---------------------|-10---------------------|-9----------------------|  |
E|------------------------|------------------------|------------------------|------------------------|  |
                                                                                                        |
[Guitar 2]                                                                                              |
                                                                                                        |
e|------------------------|------------------------|------------------------|------------------------|  |
B|---0--------------------|------------------------|------------------------|------------------------|  |
G|--5---------------------|------------------------|------------------------|------------------------|  |
D|-7----------------------|------------------------|------------------------|------------------------|  |
A|------------------------|------------------------|------------------------|------------------------| /
E|------------------------|------------------------|------------------------|------------------------|/

   Rhythms         fed      gently          in       vacuums          per    -spired          We'll



[Guitar 1]

e|-------------12---------|-------------12---------|-------------10---------|------------------------|\
B|------------------------|------------------------|------------------------|-------------12---------| \
G|------------------------|------------------------|------------------------|------------------------|  |
D|---------10------10-----|---------10------10-----|---------9--------9-----|---------10------10-----|  |
A|-12---------------------|-11---------------------|-10---------------------|-9----------------------|  |
E|------------------------|------------------------|------------------------|------------------------|  |
                                                                                                        |
[Guitar 2]                                                                                              |
                                                                                                        |
e|------------------------|------------------------|------------------------|------------------------|  |
B|------------------------|------------------------|------------------------|------------------------|  |
G|------------------------|------------------------|------------------------|------------------------|  |
D|------------------------|------------------------|------------------------|------------------------|  |
A|------------------------|------------------------|------------------------|------------------------| /
E|------------------------|------------------------|------------------------|------------------------|/

   stay    where   it's     warm    Where   it's     safe    from     the     down    beat   -ing



[Guitar 1]

e|-------------12---------|-------------12---------|-------------10---------|------------------------|\
B|------------------------|------------------------|------------------------|-------------12---------| \
G|------------------------|------------------------|------------------------|------------------------|  |
D|---------10------10-----|---------10------10-----|---------9--------9-----|---------10------10-----|  |
A|-12---------------------|-11---------------------|-10---------------------|-9----------------------|  |
E|------------------------|------------------------|------------------------|------------------------|  |
                                                                                                        |
[Guitar 2]                                                                                              |
                                                                                                        |
e|------------------------|------------------------|------------------------|------------------------|  |
B|------------------------|------------------------|------------------------|------------------------|  |
G|------------------------|------------------------|------------------------|------------------------|  |
D|------------------------|------------------------|------------------------|------------------------|  |
A|------------------------|------------------------|------------------------|------------------------| /
E|------------------------|------------------------|------------------------|------------------------|/

   drum                                                                               They    went



[Guitar 1]

e|-------------12---------|-------------12---------|-------------10---------|------------------------|\
B|------------------------|------------------------|------------------------|-------------12---------| \
G|------------------------|------------------------|------------------------|------------------------|  |
D|---------10------10-----|---------10------10-----|---------9--------9-----|---------10------10-----|  |
A|-12---------------------|-11---------------------|-10---------------------|-9----------------------|  |
E|------------------------|------------------------|------------------------|------------------------|  |
                                                                                                        |
[Guitar 2]                                                                                              |
                                                                                                        |
e|------------------------|------------------------|------------------------|------------------------|  |
B|---0--------------------|------------------------|------------------------|------------------------|  |
G|--5---------------------|------------------------|------------------------|------------------------|  |
D|-7----------------------|------------------------|------------------------|------------------------|  |
A|------------------------|------------------------|------------------------|------------------------| /
E|------------------------|------------------------|------------------------|------------------------|/

   golden           and     pale    wind    whis    -pers    breathe          New Orleans



[Guitar 1]

e|-------------12---------|-------------12---------|-------------10---------|------------------------|\
B|------------------------|------------------------|------------------------|-------------12---------| \
G|------------------------|------------------------|------------------------|------------------------|  |
D|---------10------10-----|---------10------10-----|---------9--------9-----|---------10------10-----|  |
A|-12---------------------|-11---------------------|-10---------------------|-9----------------------|  |
E|------------------------|------------------------|------------------------|------------------------|  |
                                                                                                        |
[Guitar 2]                                                                                              |
                                                                                                        |
e|------------------------|------------------------|------------------------|------------------------|  |
B|---0--------------------|------------------------|------------------------|------------------------|  |
G|--5---------------------|------------------------|------------------------|------------------------|  |
D|-7----------------------|------------------------|------------------------|------------------------|  |
A|------------------------|------------------------|------------------------|------------------------| /
E|------------------------|------------------------|------------------------|------------------------|/

                                    Behind           hands   arms     lift    into    it's    own



[Guitar 1]

e|-------------12---------|-------------12---------|-------------10---------|------------------------|\
B|------------------------|------------------------|------------------------|-12------12---12-----12-| \
G|------------------------|------------------------|------------------------|-x-------x----x------x--|  |
D|---------10------10-----|---------10------10-----|---------9--------9-----|-10------10---10-----10-|  |
A|-12---------------------|-11---------------------|-10---------------------|-9-------9----9------9--|  |
E|------------------------|------------------------|------------------------|------------------------|  |
                                                                                                        |
[Guitar 2]                                                                                              |
                                                                                                        |
e|------------------------|------------------------|------------------------|-7-------7----7------7--|  |
B|---0--------------------|------------------------|------------------------|-0-------0----0------0--|  |
G|--5---------------------|------------------------|------------------------|-x-------x----x------x--|  |
D|-7----------------------|------------------------|------------------------|-10------10---10-----10-|  |
A|------------------------|------------------------|------------------------|-9-------9----9------9--| /
E|------------------------|------------------------|------------------------|------------------------|/

                                    Behind           hands   arms     lift    into    it's    



[Guitar 1]

e|------------------------|------------------------|------------------------|\
B|-12------12---12-----12-|-12------12---12-----12-|-12---------------------| \
G|-x-------x----x------x--|-x-------x----x------x--|-x----------------------|  |
D|-10------10---10-----10-|-10------10---10-----10-|-10---------------------|  |
A|-9-------9----9------9--|-9-------9----9------9--|-9----------------------|  |
E|------------------------|------------------------|------------------------|  |
                                                                               |
[Guitar 2]                                                                     |
                                                                               |
e|-7-------7----7------7--|-7-------7----7------7--|-7----------------------|  |
B|-0-------0----0------0--|-0-------0----0------0--|-0----------------------|  |
G|-x-------x----x------x--|-x-------x----x------x--|-x----------------------|  |
D|-10------10---10-----10-|-10------10---10-----10-|-10---------------------|  |
A|-9-------9----9------9--|-9-------9----9------9--|-9----------------------| /
E|------------------------|------------------------|------------------------|/

                                                     own



[CHORUS]

[Guitar 1]

e|-5-------------5--5--5--|-5-------7-------8------|-10------------10-10-10-|-12------13------10-----|\
B|-5-------------5--5--5--|-5-------5-------5------|-10------------10-10-10-|-10------10------10-----| \
G|-5-------------5--5--5--|-5-------5-------5------|-10------------10-10-10-|-10------10------10-----|  |
D|-7-------------7--7--7--|-7-------7-------7------|-12------------12-12-12-|-12------12------12-----|  |
A|------------------------|------------------------|------------------------|------------------------|  |
E|------------------------|------------------------|------------------------|------------------------|  |
                                                                                                        |
[Guitar 2]                                                                                              |
                                                                                                        |
e|-0-------------0--0--0--|-0-------0-------0------|-1-------------1--1--1--|-1-------1-------1------|  |
B|-1-------------1--1--1--|-1-------1-------1------|-3-------------3--3--3--|-3-------3-------3------|  |
G|-2-------------2--2--2--|-2-------2-------2------|-2-------------2--2--2--|-2-------2-------2------|  |
D|-2-------------2--2--2--|-2-------2-------2------|-0-------------0--0--0--|-0-------0-------0------|  |
A|-0-------------0--0--0--|-0-------0-------0------|-0-------------0--0--0--|-0-------0-------0------| /
E|------------------------|------------------------|------------------------|------------------------|/



[Guitar 1]

e|-3-------------3--3--3--|-7-------5-------3------|-5-------------5--5--5--|-7----7--7----7--7----8-|\
B|-3-------------3--3--3--|-3-------3-------3------|-5-------------5--5--5--|-5----5--5----5--5----5-| \
G|-4-------------4--4--4--|-4-------4-------4------|-5-------------5--5--5--|-5----5--5----5--5----5-|  |
D|-5-------------5--5--5--|-5-------5-------5------|-7-------------7--7--7--|-7----7--7----7--7----7-|  |
A|------------------------|------------------------|------------------------|------------------------|  |
E|------------------------|------------------------|------------------------|------------------------|  |
                                                                                                        |
[Guitar 2]                                                                                              |
                                                                                                        |
e|-3-------------3--3--3--|-3-------3-------3------|-0-------------0--0--0--|-0-------0-------0------|  |
B|-3-------------3--3--3--|-3-------3-------3------|-1-------------1--1--1--|-1-------1-------1------|  |
G|-0-------------0--0--0--|-0-------0-------0------|-2-------------2--2--2--|-2-------2-------2------|  |
D|-0-------------0--0--0--|-0-------0-------0------|-2-------------2--2--2--|-2-------2-------2------|  |
A|-2-------------2--2--2--|-2-------2-------2------|-0-------------0--0--0--|-0-------0-------0------| /
E|-3-------------3--3--3--|-3-------3-------3------|------------------------|------------------------|/



[Guitar 1]

e|-5-------------5--5--5--|-5-------7-------8------|-10------------10-10-10-|-12------13------10-----|\
B|-5-------------5--5--5--|-5-------5-------5------|-10------------10-10-10-|-10------10------10-----| \
G|-5-------------5--5--5--|-5-------5-------5------|-10------------10-10-10-|-10------10------10-----|  |
D|-7-------------7--7--7--|-7-------7-------7------|-12------------12-12-12-|-12------12------12-----|  |
A|------------------------|------------------------|------------------------|------------------------|  |
E|------------------------|------------------------|------------------------|------------------------|  |
                                                                                                        |
[Guitar 2]                                                                                              |
                                                                                                        |
e|-0-------------0--0--0--|-0-------0-------0------|-1-------------1--1--1--|-1-------1-------1------|  |
B|-1-------------1--1--1--|-1-------1-------1------|-3-------------3--3--3--|-3-------3-------3------|  |
G|-2-------------2--2--2--|-2-------2-------2------|-2-------------2--2--2--|-2-------2-------2------|  |
D|-2-------------2--2--2--|-2-------2-------2------|-0-------------0--0--0--|-0-------0-------0------|  |
A|-0-------------0--0--0--|-0-------0-------0------|-0-------------0--0--0--|-0-------0-------0------| /
E|------------------------|------------------------|------------------------|------------------------|/



[Guitar 1]

e|-3-------------3--3--3--|-7-------5-------3------|-5-------------5--5--5--|-7----7--7----7--7----8-|\
B|-3-------------3--3--3--|-3-------3-------3------|-5-------------5--5--5--|-5----5--5----5--5----5-| \
G|-4-------------4--4--4--|-4-------4-------4------|-5-------------5--5--5--|-5----5--5----5--5----5-|  |
D|-5-------------5--5--5--|-5-------5-------5------|-7-------------7--7--7--|-7----7--7----7--7----7-|  |
A|------------------------|------------------------|------------------------|------------------------|  |
E|------------------------|------------------------|------------------------|------------------------|  |
                                                                                                        |
[Guitar 2]                                                                                              |
                                                                                                        |
e|-3-------------3--3--3--|-3-------3-------3------|-0-------------0--0--0--|-0-------0-------0------|  |
B|-3-------------3--3--3--|-3-------3-------3------|-1-------------1--1--1--|-1-------1-------1------|  |
G|-0-------------0--0--0--|-0-------0-------0------|-2-------------2--2--2--|-2-------2-------2------|  |
D|-0-------------0--0--0--|-0-------0-------0------|-2-------------2--2--2--|-2-------2-------2------|  |
A|-2-------------2--2--2--|-2-------2-------2------|-0-------------0--0--0--|-0-------0-------0------| /
E|-3-------------3--3--3--|-3-------3-------3------|------------------------|------------------------|/



[Guitar 1]

e|-5-------------5--5--5--|-5-------7-------8------|-10------------10-10-10-|-12------13------10-----|\
B|-5-------------5--5--5--|-5-------5-------5------|-10------------10-10-10-|-10------10------10-----| \
G|-5-------------5--5--5--|-5-------5-------5------|-10------------10-10-10-|-10------10------10-----|  |
D|-7-------------7--7--7--|-7-------7-------7------|-12------------12-12-12-|-12------12------12-----|  |
A|------------------------|------------------------|------------------------|------------------------|  |
E|------------------------|------------------------|------------------------|------------------------|  |
                                                                                                        |
[Guitar 2]                                                                                              |
                                                                                                        |
e|-0-------------0--0--0--|-0-------0-------0------|-1-------------1--1--1--|-1-------1-------1------|  |
B|-1-------------1--1--1--|-1-------1-------1------|-3-------------3--3--3--|-3-------3-------3------|  |
G|-2-------------2--2--2--|-2-------2-------2------|-2-------------2--2--2--|-2-------2-------2------|  |
D|-2-------------2--2--2--|-2-------2-------2------|-0-------------0--0--0--|-0-------0-------0------|  |
A|-0-------------0--0--0--|-0-------0-------0------|-0-------------0--0--0--|-0-------0-------0------| /
E|------------------------|------------------------|------------------------|------------------------|/

                            As   habits  pull  the   sleep         out        Covered    in   the



[Guitar 1]

e|-3-------------3--3--3--|-7-------5-------3------|-5-------------5--5--5--|-7----7--7----7--7----8-|\
B|-3-------------3--3--3--|-3-------3-------3------|-5-------------5--5--5--|-5----5--5----5--5----5-| \
G|-4-------------4--4--4--|-4-------4-------4------|-5-------------5--5--5--|-5----5--5----5--5----5-|  |
D|-5-------------5--5--5--|-5-------5-------5------|-7-------------7--7--7--|-7----7--7----7--7----7-|  | 
A|------------------------|------------------------|------------------------|------------------------|  |
E|------------------------|------------------------|------------------------|------------------------|  |
                                                                                                        |
[Guitar 2]                                                                                              |
                                                                                                        |
e|-3-------------3--3--3--|-3-------3-------3------|-0-------------0--0--0--|-0-------0-------0------|  |
B|-3-------------3--3--3--|-3-------3-------3------|-1-------------1--1--1--|-1-------1-------1------|  |
G|-0-------------0--0--0--|-0-------0-------0------|-2-------------2--2--2--|-2-------2-------2------|  |
D|-0-------------0--0--0--|-0-------0-------0------|-2-------------2--2--2--|-2-------2-------2------|  |
A|-2-------------2--2--2--|-2-------2-------2------|-0-------------0--0--0--|-0-------0-------0------| /
E|-3-------------3--3--3--|-3-------3-------3------|------------------------|------------------------|/

   sheets        that       harbor  rest    and      sun                      shine



[Guitar 1]

e|-5-------------5--5--5--|-5-------7-------8------|-10------------10-10-10-|-12------13------10-----|\
B|-5-------------5--5--5--|-5-------5-------5------|-10------------10-10-10-|-10------10------10-----| \
G|-5-------------5--5--5--|-5-------5-------5------|-10------------10-10-10-|-10------10------10-----|  |
D|-7-------------7--7--7--|-7-------7-------7------|-12------------12-12-12-|-12------12------12-----|  |
A|------------------------|------------------------|------------------------|------------------------|  |
E|------------------------|------------------------|------------------------|------------------------|  |
                                                                                                        |
[Guitar 2]                                                                                              |
                                                                                                        |
e|-0-------------0--0--0--|-0-------0-------0------|-1-------------1--1--1--|-1-------1-------1------|  |
B|-1-------------1--1--1--|-1-------1-------1------|-3-------------3--3--3--|-3-------3-------3------|  |
G|-2-------------2--2--2--|-2-------2-------2------|-2-------------2--2--2--|-2-------2-------2------|  |
D|-2-------------2--2--2--|-2-------2-------2------|-0-------------0--0--0--|-0-------0-------0------|  |
A|-0-------------0--0--0--|-0-------0-------0------|-0-------------0--0--0--|-0-------0-------0------| /
E|------------------------|------------------------|------------------------|------------------------|/

                            As   habits  pull  the   sleep         out        Covered    in   the



[Guitar 1]

e|-3-------------3--3--3--|-7-------5-------3------|-5-------------5--5--5--|-7----7--7----7--7----8-|\
B|-3-------------3--3--3--|-3-------3-------3------|-5-------------5--5--5--|-5----5--5----5--5----5-| \
G|-4-------------4--4--4--|-4-------4-------4------|-5-------------5--5--5--|-5----5--5----5--5----5-|  |
D|-5-------------5--5--5--|-5-------5-------5------|-7-------------7--7--7--|-7----7--7----7--7----7-|  |
A|------------------------|------------------------|------------------------|------------------------|  |
E|------------------------|------------------------|------------------------|------------------------|  |
                                                                                                        |
[Guitar 2]                                                                                              |
                                                                                                        |
e|-3-------------3--3--3--|-3-------3-------3------|-0-------------0--0--0--|-0-------0-------0------|  |
B|-3-------------3--3--3--|-3-------3-------3------|-1-------------1--1--1--|-1-------1-------1------|  |
G|-0-------------0--0--0--|-0-------0-------0------|-2-------------2--2--2--|-2-------2-------2------|  |
D|-0-------------0--0--0--|-0-------0-------0------|-2-------------2--2--2--|-2-------2-------2------|  |
A|-2-------------2--2--2--|-2-------2-------2------|-0-------------0--0--0--|-0-------0-------0------| /
E|-3-------------3--3--3--|-3-------3-------3------|------------------------|------------------------|/ 

   sheets        that       harbor  rest    and      sun                      shine



[Guitar 1]

e|-5-------------5--5--5--|-5-------7-------8------|-10------------10-10-10-|-12------13------10-----|\
B|-5-------------5--5--5--|-5-------5-------5------|-10------------10-10-10-|-10------10------10-----| \
G|-5-------------5--5--5--|-5-------5-------5------|-10------------10-10-10-|-10------10------10-----|  |
D|-7-------------7--7--7--|-7-------7-------7------|-12------------12-12-12-|-12------12------12-----|  |
A|------------------------|------------------------|------------------------|------------------------|  |
E|------------------------|------------------------|------------------------|------------------------|  |
                                                                                                        |
[Guitar 2]                                                                                              |
                                                                                                        |
e|-0-------------0--0--0--|-0-------0-------0------|-1-------------1--1--1--|-1-------1-------1------|  |
B|-1-------------1--1--1--|-1-------1-------1------|-3-------------3--3--3--|-3-------3-------3------|  |
G|-2-------------2--2--2--|-2-------2-------2------|-2-------------2--2--2--|-2-------2-------2------|  |
D|-2-------------2--2--2--|-2-------2-------2------|-0-------------0--0--0--|-0-------0-------0------|  |
A|-0-------------0--0--0--|-0-------0-------0------|-0-------------0--0--0--|-0-------0-------0------|  |
E|------------------------|------------------------|------------------------|------------------------|  |
                                                                                                        |
[Midi Keyboard arranged as Guitar]                                                                      |
                                                                                                        |
e|------------------------|------------------------|------------------------|------------------------|  |
B|/13------12------10-----|------------------------|/13------12------10-----|------------------------|  |
G|------------------------|-9----------------------|------------------------|-10---------------------|  |
D|------------------------|------------------------|------------------------|------------------------|  |
A|------------------------|------------------------|------------------------|------------------------| /
E|------------------------|------------------------|------------------------|------------------------|/

                            And      as     the      sta    -di     -um       sheds   out     the



[Guitar 1]

e|-3-------------3--3--3--|-7-------5-------3------|-5-------------5--5--5--|-7----7--7----7--7----8-|\
B|-3-------------3--3--3--|-3-------3-------3------|-5-------------5--5--5--|-5----5--5----5--5----5-| \
G|-4-------------4--4--4--|-4-------4-------4------|-5-------------5--5--5--|-5----5--5----5--5----5-|  |
D|-5-------------5--5--5--|-5-------5-------5------|-7-------------7--7--7--|-7----7--7----7--7----7-|  |
A|------------------------|------------------------|------------------------|------------------------|  |
E|------------------------|------------------------|------------------------|------------------------|  |
                                                                                                        |
[Guitar 2]                                                                                              |
                                                                                                        |
e|-3-------------3--3--3--|-3-------3-------3------|-0-------------0--0--0--|-0-------0-------0------|  |
B|-3-------------3--3--3--|-3-------3-------3------|-1-------------1--1--1--|-1-------1-------1------|  |
G|-0-------------0--0--0--|-0-------0-------0------|-2-------------2--2--2--|-2-------2-------2------|  |
D|-0-------------0--0--0--|-0-------0-------0------|-2-------------2--2--2--|-2-------2-------2------|  |
A|-2-------------2--2--2--|-2-------2-------2------|-0-------------0--0--0--|-0-------0-------0------|  |
E|-3-------------3--3--3--|-3-------3-------3------|------------------------|------------------------|  |
                                                                                                        |
[Midi Keyboard arranged as Guitar]                                                                      |
                                                                                                        |
e|------------------------|------------------------|------------------------|------------------------|  |
B|/13------12------10-----|------------------------|/10---------------------|------------------------|  |
G|------------------------|-10---------------------|---------10------7------|-9----------------------|  |
D|------------------------|------------------------|------------------------|---------10------7------|  |
A|------------------------|------------------------|------------------------|------------------------| /
E|------------------------|------------------------|------------------------|------------------------|/

   crowd                    into    the    street



[Guitar 1]

e|-5-------------5--5--5--|-5-------7-------8------|-10------------10-10-10-|-12------13------10-----|\
B|-5-------------5--5--5--|-5-------5-------5------|-10------------10-10-10-|-10------10------10-----| \
G|-5-------------5--5--5--|-5-------5-------5------|-10------------10-10-10-|-10------10------10-----|  |
D|-7-------------7--7--7--|-7-------7-------7------|-12------------12-12-12-|-12------12------12-----|  |
A|------------------------|------------------------|------------------------|------------------------|  |
E|------------------------|------------------------|------------------------|------------------------|  |
                                                                                                        |
[Guitar 2]                                                                                              |
                                                                                                        |
e|-0-------------0--0--0--|-0-------0-------0------|-1-------------1--1--1--|-1-------1-------1------|  |
B|-1-------------1--1--1--|-1-------1-------1------|-3-------------3--3--3--|-3-------3-------3------|  |
G|-2-------------2--2--2--|-2-------2-------2------|-2-------------2--2--2--|-2-------2-------2------|  |
D|-2-------------2--2--2--|-2-------2-------2------|-0-------------0--0--0--|-0-------0-------0------|  |
A|-0-------------0--0--0--|-0-------0-------0------|-0-------------0--0--0--|-0-------0-------0------|  |
E|------------------------|------------------------|------------------------|------------------------|  |
                                                                                                        |
[Midi Keyboard arranged as Guitar]                                                                      |
                                                                                                        |
e|------------------------|------------------------|------------------------|------------------------|  |
B|/13------12------10-----|------------------------|/13------12------10-----|------------------------|  |
G|------------------------|-9----------------------|------------------------|-10---------------------|  |
D|------------------------|------------------------|------------------------|------------------------|  |
A|------------------------|------------------------|------------------------|------------------------| /
E|------------------------|------------------------|------------------------|------------------------|/

                        And out     of      the      throats                  tongues licking down

[Guitar 1]

e|-3-------------3--3--3--|-7-------5-------3------|\
B|-3-------------3--3--3--|-3-------3-------3------| \
G|-4-------------4--4--4--|-4-------4-------4------|  |
D|-5-------------5--5--5--|-5-------5-------5------|  |
A|------------------------|------------------------|  |
E|------------------------|------------------------|  |
                                                      |
[Guitar 2]                                            |
                                                      |
e|-3-------------3--3--3--|-3-------3-------3------|  |
B|-3-------------3--3--3--|-3-------3-------3------|  |
G|-0-------------0--0--0--|-0-------0-------0------|  |
D|-0-------------0--0--0--|-0-------0-------0------|  |
A|-2-------------2--2--2--|-2-------2-------2------|  |
E|-3-------------3--3--3--|-3-------3-------3------|  |
                                                      |
[Midi Keyboard arranged as Guitar]                    |
                                                      |
e|------------------------|------------------------|  |
B|/13------12------10-----|------------------------|  |
G|------------------------|-10---------------------|  |
D|------------------------|------------------------|  |
A|------------------------|------------------------| /
E|------------------------|------------------------|/

                   What    will    I        Be



[OUTRO]

[Guitar 1]

e|-------------12---------|-------------12---------|-------------10---------|------------------------|\
B|------------------------|------------------------|------------------------|-------------12---------| \
G|------------------------|------------------------|------------------------|------------------------|  |
D|---------10------10-----|---------10------10-----|---------9--------9-----|---------10------10-----|  |
A|-12---------------------|-11---------------------|-10---------------------|-9----------------------|  |
E|------------------------|------------------------|------------------------|------------------------|  |
                                                                                                        |
[Guitar 2]                                                                                              |
                                                                                                        |
e|-0----------------------|------------------------|------------------------|------------------------|  |
B|-1----------------------|------------------------|------------------------|------------------------|  |
G|-2----------------------|------------------------|------------------------|------------------------|  |
D|-2----------------------|------------------------|------------------------|------------------------|  |
A|-0----------------------|------------------------|------------------------|------------------------|  |
E|------------------------|------------------------|------------------------|------------------------|  |
                                                                                                        |
[Midi Keyboard arranged as Guitar]                                                                      |
                                                                                                        |
e|------------------------|------------------------|------------------------|------------------------|  |
B|/13------12------10-----|------------------------|/10---------------------|------------------------|  |
G|------------------------|-10---------------------|---------10------7------|-9----------------------|  |
D|------------------------|------------------------|------------------------|---------10------7------|  |
A|------------------------|------------------------|------------------------|------------------------| /
E|------------------------|------------------------|------------------------|------------------------|/

   come                                                                       In     -to      it's    




[Guitar 1]

e|-------------12---------|-------------12---------|-------------10---------|------------------------|\
B|------------------------|------------------------|------------------------|-------------12---------| \
G|------------------------|------------------------|------------------------|------------------------|  | 
D|---------10------10-----|---------10------10-----|---------9--------9-----|---------10------10-----|  |
A|-12---------------------|-11---------------------|-10---------------------|-9----------------------|  |
E|------------------------|------------------------|------------------------|------------------------|  |
                                                                                                        |
[Midi Keyboard arranged as Guitar]                                                                      |
                                                                                                        |
e|------------------------|------------------------|------------------------|------------------------|  |
B|/10---------------------|------------------------|/10---------------------|------------------------|  |
G|---------10------7------|-9----------------------|---------10------7------|-9----------------------|  |
D|------------------------|--------10------7-------|------------------------|--------10------7-------|  |
A|------------------------|------------------------|------------------------|------------------------| /
E|------------------------|------------------------|------------------------|------------------------|/

                                                                              In    -to      it's

[Guitar 1]

e|-------------12---------|-------------12---------|-------------10---------|------------------------|
B|------------------------|------------------------|------------------------|-------------12---------|
G|------------------------|------------------------|------------------------|------------------------|
D|---------10------10-----|---------10------10-----|---------9--------9-----|---------10------10-----|
A|-12---------------------|-11---------------------|-10---------------------|-9----------------------|
E|------------------------|------------------------|------------------------|------------------------|

                                                                              In    -to      it's

                                                                             FADE OUT----------------|


************************************

| x   Dead note
| /   Slide up
| \   Slide down

************************************
Suggest correction
Give kudos to tab author, rate the tab!
1 2 3 4 5
comments
print report bad tab
guest
You may want to rate the tab now too:
select rating
Wanna post a correction for this tab? Suggest correction