Oops, an error
Loading. Please wait.

Telling Tellers Tell Me Tab

547 views 1 this week
no commentswrite comment
1 2 3 4 5
please rate
add to favorites
launch autoscroll
font size
0
reset
how to read this tab
guitar tuner
Autoscroll
slow
fast
+/-
esc
set tempo
stop
Help us to improve Ultimate-Guitar.com Take our survey!
×
Author
Difficulty
intermediate
VERSE


e|-----------------------------------------------------------------------------|
B|---6h8-----6-------------6h8-----6-------------------------------------------|
G|-------7------7----7---------7------7----REPEAT 3X then PLAY vvv-------------|
D|---------5-------5--------------5--------------------------------------------|
A|-----------------------------------------------------------------------------|
E|-----------------------------------------------------------------------------|

e|---------------------------------------------------------------------------------------|
B|------8--------8---------8------6h8----------------------------------------------------|
G|--------7--------7---------7--------7--------------------------------------------------|
D|----8-----8-7------7-6-------6--------5-(Loop back into the intro)---------------------|
A|---------------------------------------------------------------------------------------|
E|---------------------------------------------------------------------------------------|

Then before the chorus he just plays the following repeatedly until the chorus kicks in

e|---------------------------------------------------------------------------|
B|------8--------------------------------------------------------------------|
G|---------------------------------------------------------------------------|
D|----6----------------------------------------------------------------------|
A|---------------------------------------------------------------------------|
E|---------------------------------------------------------------------------|

CHORUS

F G Bb F G (power chords) then

e|---------------------------------------------------------------------------|
B|---------------------------------------------------------------------------|
G|---------------------------------------------------------------------------|
D|---x-x-x-x-5-5-5-5-x-x-5-5-5-5-5-5-5-5-------------------------------------|
A|---------------------------------------------------------------------------|
E|---------------------------------------------------------------------------|

repeat 3 x then

Bb (1 measure) C (1 measure) - power chords

VERSE
CHORUS

SOLO

e|-------------------------------------------------------------------------------|
B|-------------------------------------------------------------------11----------|
G|-------------------------------------------------------------10h12---12--------|
D|-------------------------------------------------------10h12-------------------|
A|-----------3-3s5-3----3--3--(0)h3----------3-3s5-8-----------------------------|
E|---3---3-6----------6--------------3---3-6-------------------------------------|

Repeat, then the third measure's a little different

e|--------------------------------------------------------------|
B|-----------------------------------------------------8--8--8--|
G|---------------------------3-5~~~~~~--------------------------|and repeat that into the CHORUS
D|-----------------------3-5------------------------------------|
A|------------3-3s5-3-5-------------------------3-3s5---6--6----|
E|---3---3-6---------------------------3---3-6------------------|


think this one's pretty, pretty, pretttttty good. oh and this song rips
Suggest correction
Give kudos to tab author, rate the tab!
1 2 3 4 5
comments
print report bad tab
guest
You may want to rate the tab now too:
select rating
Wanna post a correction for this tab? Suggest correction