Oops, an error
Loading. Please wait.

Feeling Whitney tab

8,848 views 336 this week
1 commentread comment
1 2 3 4 5
x 11
add to favorites
×
Save as Personal and add changes to this tab that will be seen only by you. Learn more ›
×
You can save this tab as Personal to edit and correct it or add notes. All changes will be seen only by you. Learn more »
launch autoscroll
font size
0
reset
how to read this tab
guitar tuner
edit
Autoscroll
slow
fast
+/-
esc
set tempo
stop
Author
Difficulty
[Intro]
e|------------------------------------------|       (x4)
B|----------1---------1---------1---------1-|
G|------0---------0---------0---------0-----|
D|--------2---------2---------2---------2---|
A|----3---------3---------3---------3-------|
E|------------------------------------------|

    Ooh,  ooh,  ooh,  ooh,  ooh,  ooh-ooh
e|------------------------------------------|       (x2)
B|----------1---------1---------1---------1-|
G|------0---------0---------0---------0-----|
D|--------2---------2---------2---------2---|
A|----3---------3---------3---------3-------|
E|------------------------------------------|

    Ooh,  ooh,  ooh,  ooh,  ooh,  ooh-ooh
e|------------------------------------------|       (x2)
B|----------1---------1---------1---------1-|
G|------2---------2---------2---------2-----|
D|--------2---------2---------2---------2---|
A|----0---------0---------0---------0-------|
E|------------------------------------------|

    Ooh,  ooh,  ooh,  ooh,  ooh,  ooh-ooh
e|------------------------------------------|       (x2)
B|----------1---------1---------1---------1-|
G|------2---------2---------2---------2-----|
D|--------3---------3---------3---------3---|
A|------------------------------------------|
E|----1---------1---------1---------1-------|

    Ooh
e|------------------------------------------|       (x2)
B|----------1---------1---------1---------1-|
G|------0---------0---------0---------0-----|
D|--------2---------2---------2---------2---|
A|----3---------3---------3---------3-------|
E|------------------------------------------|

[Verse 1]
  And I've been looking for someone to put up with my bullshit
e|------------------------------------------|       (x2)
B|----------1---------1---------1---------1-|
G|------0---------0---------0---------0-----|
D|--------2---------2---------2---------2---|
A|----3---------3---------3---------3-------|
E|------------------------------------------|

  I can't even leave my bedroom so I keep pouring
e|------------------------------------------|       (x2)
B|----------1---------1---------1---------1-|
G|------2---------2---------2---------2-----|
D|--------2---------2---------2---------2---|
A|----0---------0---------0---------0-------|
E|------------------------------------------|

  And I ain't seen a light of day since, well that's not important
e|------------------------------------------|       (x2)
B|----------1---------1---------1---------1-|
G|------2---------2---------2---------2-----|
D|--------3---------3---------3---------3---|
A|------------------------------------------|
E|----1---------1---------1---------1-------|

    It's been long
e|------------------------------------------|       (x2)
B|----------1---------1---------1---------1-|
G|------0---------0---------0---------0-----|
D|--------2---------2---------2---------2---|
A|----3---------3---------3---------3-------|
E|------------------------------------------|

  And I was feeling Whitney, me and my homies sip Houston
e|------------------------------------------|       (x2)
B|----------1---------1---------1---------1-|
G|------0---------0---------0---------0-----|
D|--------2---------2---------2---------2---|
A|----3---------3---------3---------3-------|
E|------------------------------------------|

  Cars and clothes, thought I was winning, you knew I was losing
e|------------------------------------------|       (x2)
B|----------1---------1---------1---------1-|
G|------2---------2---------2---------2-----|
D|--------2---------2---------2---------2---|
A|----0---------0---------0---------0-------|
E|------------------------------------------|

  You told me to wake up, oh my clock always stays on snooze
e|------------------------------------------|       (x2)
B|----------1---------1---------1---------1-|
G|------2---------2---------2---------2-----|
D|--------3---------3---------3---------3---|
A|------------------------------------------|
E|----1---------1---------1---------1-------|

     And I'm done
e|------------------------------------------|------------------------------------------|
B|----------1---------1---------1---------1-|----------1---------1---------1---------1-|
G|------0---------0---------0---------0-----|------3---------3---------3---------3-----|
D|--------2---------2---------2---------2---|--------2---------2---------2---------2---|
A|----3---------3---------3---------3-------|----3---------3---------3---------3-------|
E|------------------------------------------|------------------------------------------|

[Chorus]
  To each their own and find peace in knowing
e|------------------------------------------|       (x2)
B|----------1---------1---------1---------1-|
G|------2---------2---------2---------2-----|
D|--------3---------3---------3---------3---|
A|------------------------------------------|
E|----1---------1---------1---------1-------|

  Ain't always broken, but here's to hoping
e|------------------------------------------|       (x2)
B|----------1---------1---------1---------1-|
G|------0---------0---------0---------0-----|
D|--------2---------2---------2---------2---|
A|----3---------3---------3---------3-------|
E|------------------------------------------|

  Show no emotion, against your coding
e|------------------------------------------|       (x2)
B|----------1---------1---------1---------1-|
G|------2---------2---------2---------2-----|
D|--------3---------3---------3---------3---|
A|------------------------------------------|
E|----1---------1---------1---------1-------|

  And just act as hard as you can                                   You don't need a friend
e|------------------------------------------|----------3---------3---------3---------3-----|
B|----------1---------1---------1---------1-|----------------------------------------------|
G|------0---------0---------0---------0-----|------0---------0---------0---------0---------|
D|--------2---------2---------2---------2---|--------0---------0---------0---------0-------|
A|----3---------3---------3---------3-------|----------------------------------------------|
E|------------------------------------------|----3---------3---------3---------3-----------|

                            Boy, you're the man
e|----------1---------1---------------------|
B|------------------------------------------|
G|------0---------0-------------------------|
D|--------0---------0-----------------------|
A|------------------------------------------|
E|----3---------3---------3-----------------|

[Post-Chorus]
    Ooh,  ooh,  ooh,  ooh,  ooh,  ooh-ooh
e|------------------------------------------|       (x2)
B|----------1---------1---------1---------1-|
G|------0---------0---------0---------0-----|
D|--------2---------2---------2---------2---|
A|----3---------3---------3---------3-------|
E|------------------------------------------|

    Ooh,  ooh,  ooh,  ooh,  ooh,  ooh-ooh
e|------------------------------------------|       (x2)
B|----------1---------1---------1---------1-|
G|------2---------2---------2---------2-----|
D|--------2---------2---------2---------2---|
A|----0---------0---------0---------0-------|
E|------------------------------------------|

    Ooh,  ooh,  ooh,  ooh,  ooh,  ooh-ooh
e|------------------------------------------|       (x2)
B|----------1---------1---------1---------1-|
G|------2---------2---------2---------2-----|
D|--------3---------3---------3---------3---|
A|------------------------------------------|
E|----1---------1---------1---------1-------|

    Ooh
e|------------------------------------------|       (x2)
B|----------1---------1---------1---------1-|
G|------0---------0---------0---------0-----|
D|--------2---------2---------2---------2---|
A|----3---------3---------3---------3-------|
E|------------------------------------------|

[Verse 2]
  And I've been looking for someone that I can buy my drugs from
e|------------------------------------------|       (x2)
B|----------1---------1---------1---------1-|
G|------0---------0---------0---------0-----|
D|--------2---------2---------2---------2---|
A|----3---------3---------3---------3-------|
E|------------------------------------------|

  It seems like every plug ran east to Utah, became Mormons
e|------------------------------------------|       (x2)
B|----------1---------1---------1---------1-|
G|------2---------2---------2---------2-----|
D|--------2---------2---------2---------2---|
A|----0---------0---------0---------0-------|
E|------------------------------------------|

  Drought comes around, feels like I have no one to depend on
e|------------------------------------------|       (x2)
B|----------1---------1---------1---------1-|
G|------2---------2---------2---------2-----|
D|--------3---------3---------3---------3---|
A|------------------------------------------|
E|----1---------1---------1---------1-------|

     Sober, ugh
e|------------------------------------------|       (x2)
B|----------1---------1---------1---------1-|
G|------0---------0---------0---------0-----|
D|--------2---------2---------2---------2---|
A|----3---------3---------3---------3-------|
E|------------------------------------------|

  I had 80 beers on Tuesday night, I had nothing to do with it
e|------------------------------------------|       (x2)
B|----------1---------1---------1---------1-|
G|------0---------0---------0---------0-----|
D|--------2---------2---------2---------2---|
A|----3---------3---------3---------3-------|
E|------------------------------------------|

  I put on a little Dwight and sang a happy tune
e|------------------------------------------|       (x2)
B|----------1---------1---------1---------1-|
G|------2---------2---------2---------2-----|
D|--------2---------2---------2---------2---|
A|----0---------0---------0---------0-------|
E|------------------------------------------|

  And lit a cigarette, stepped out the door, had an appearance
e|------------------------------------------|       (x2)
B|----------1---------1---------1---------1-|
G|------2---------2---------2---------2-----|
D|--------3---------3---------3---------3---|
A|------------------------------------------|
E|----1---------1---------1---------1-------|

     Drank more
e|------------------------------------------|------------------------------------------|
B|----------1---------1---------1---------1-|----------1---------1---------1---------1-|
G|------0---------0---------0---------0-----|------3---------3---------3---------3-----|
D|--------2---------2---------2---------2---|--------2---------2---------2---------2---|
A|----3---------3---------3---------3-------|----3---------3---------3---------3-------|
E|------------------------------------------|------------------------------------------|

[Chorus]
  To each their own and find peace in knowing
e|------------------------------------------|       (x2)
B|----------1---------1---------1---------1-|
G|------2---------2---------2---------2-----|
D|--------3---------3---------3---------3---|
A|------------------------------------------|
E|----1---------1---------1---------1-------|

  Ain't always broken, but here's to hoping
e|------------------------------------------|       (x2)
B|----------1---------1---------1---------1-|
G|------0---------0---------0---------0-----|
D|--------2---------2---------2---------2---|
A|----3---------3---------3---------3-------|
E|------------------------------------------|

  Show no emotion, against your coding
e|------------------------------------------|       (x2)
B|----------1---------1---------1---------1-|
G|------2---------2---------2---------2-----|
D|--------3---------3---------3---------3---|
A|------------------------------------------|
E|----1---------1---------1---------1-------|

  And just act as hard as you can                                   You don't need a friend
e|------------------------------------------|----------3---------3---------3---------3-----|
B|----------1---------1---------1---------1-|----------------------------------------------|
G|------0---------0---------0---------0-----|------0---------0---------0---------0---------|
D|--------2---------2---------2---------2---|--------0---------0---------0---------0-------|
A|----3---------3---------3---------3-------|----------------------------------------------|
E|------------------------------------------|----3---------3---------3---------3-----------|

                            Boy, you're the man
e|----------1---------1---------------------|
B|------------------------------------------|
G|------0---------0-------------------------|
D|--------0---------0-----------------------|
A|------------------------------------------|
E|----3---------3---------3-----------------|

[Post-Chorus]
    Ooh,  ooh,  ooh,  ooh,  ooh,  ooh-ooh
e|------------------------------------------|       (x2)
B|----------1---------1---------1---------1-|
G|------0---------0---------0---------0-----|
D|--------2---------2---------2---------2---|
A|----3---------3---------3---------3-------|
E|------------------------------------------|

    Ooh,  ooh,  ooh,  ooh,  ooh,  ooh-ooh
e|------------------------------------------|       (x2)
B|----------1---------1---------1---------1-|
G|------2---------2---------2---------2-----|
D|--------2---------2---------2---------2---|
A|----0---------0---------0---------0-------|
E|------------------------------------------|

    Ooh,  ooh,  ooh,  ooh,  ooh,  ooh-ooh
e|------------------------------------------|       (x2)
B|----------1---------1---------1---------1-|
G|------2---------2---------2---------2-----|
D|--------3---------3---------3---------3---|
A|------------------------------------------|
E|----1---------1---------1---------1-------|

    Ooh
e|------------------------------------------|       (x2)
B|----------1---------1---------1---------1-|
G|------0---------0---------0---------0-----|
D|--------2---------2---------2---------2---|
A|----3---------3---------3---------3-------|
E|------------------------------------------|

            
            
Suggest correction
Creating personal tab
Creating personal tab
You can edit any tab online and save it as your Personal.

You can edit, replace or remove any tab part or add personal notes – all changes will be seen only by you.

Personal tabs can be accessed anytime from any device, even offline.
Learn more »
comments
print report bad tab
1 comment total.
0 reply
jjwernham 10 Apr 15, 2017 11:34 AM

I believe the plucking patterns actually like
e|-------------|
B|------1------|
G|----------2--|
D|--------0----|
A|----3--------|
E|-------------|

guest
You may want to rate the tab now too:
select rating
Wanna post a correction for this tab? Suggest correction