Oops, an error
Loading. Please wait.

Sommer P Jorda Tab

982 views 1 this week
no commentswrite comment
1 2 3 4 5
please rate
add to favorites
launch autoscroll
font size
0
reset
how to read this tab
guitar tuner
Tab Pro tools
  • play this tab
  • loop segment
  • change instrument
  • show fretboard
  • metronome
×
Best way to learn
"Sommer P Jorda"
Autoscroll
slow
fast
+/-
esc
set tempo
stop
Contributor
Difficulty
intermediate
VERSE & CHORUS (See "intro" version for intro)


The tab is pretty accurate, but it's a little bit hard to hear the guitar in the actual song,
so there might be some minor differences.




h - hammer on
p - pull off



 VERSE:

   Når sola henger høyt over Langesund.      Og hjernen er myk, og jorda er rund.
e------0------0---------3-----------2h3----------3------3-------0----------0---------|
B------1------1---------3-----------3------------3------3-------1----------1---------|
G----0--0---0--0-----2----2-----2--------------0--0---0--0---0---0-----0-------0-----|
D-----------------------------0------------------------------------------------------|
A--3------2-------0--------------------------------------------------3---------------|
E--------------------------------------------3-------2------0------------------------|

   Og Wrightegården ligger der den alltid lå.
e-------------2-------------------2--------------------0---------------------3-------|
B-------------0-------------------0--------------------0---------------------3-------|
G--------2---------2---------2--------2---------0-----------0----------0---------0---|
D-----------------------1------------------------------------------------------------|
A----2-------------------------------------------------------------------------------|
E-------------------------------------------0---------------------3------------------|

   Og pilsen er kald og sorgene små
e-------------0-----------------0-------------------3----------------------2h3-------|
B-------------1-----------------1-------------------3----------------------3---------|
G--------0--------0-------0---------0---------0--------0------------2----------------|
D-------------------------------------------------------------0----------------------|
A----3-----------------2------------------0------------------------------------------|
E------------------------------------------------------------------------------------|

  Når køen på E18 er gått i stå
e-------------3---------------3------------------0-----------------------2-----------|
B-------------3---------------3------------------0-----------------------0-----------|
G---------0------0--------0------0---------0---------0------------2-----------2------|
D------------------------------------------------------------------------------------|
A------------------------------------------------------------2-----------------------|
E-----3---------------2---------------0----------------------------------------------|


  Og alle går og banner og ingen kan for-
e---------------0-------------------0------------------3-----------------------------|
B---------------1-------------------1------------------3-----------------------------|
G----------0--------0---------0----------0-------0---------0-------------------------|
D------------------------------------------------------------------------------------|
A-----3------------------2-------------------0---------------------------------------|
E------------------------------------------------------------------------------------|

            stå...................................
e-------------------2p0---------------------------------------------------------------|
B-----------------------3-------------------------------------------------------------|
G------------2---------------------0--------0-----------------------------------------|
D------0------------------------------------------------------------------------------|
A------------------------------3--------2---------------------------------------------|
E-------------------------------------------------------------------------------------|


  At det er sommer på jorda
e------------------2p0----------------------------------------3----------------------|
B----------------------3------------------------------3-------------3----------3-----|
G------------2------------------0------0---------0-------0---------------0-----------|
D------0-----------------------------------------------------------------------------|
A---------------------------3-------2------------------------------------------------|
E--------------------------------------------3---------------------------------------|

And then it repeats on second and third verse







CHORUS:

     -      C
Sommer på jorda
  D     G
Smil overalt
    G             C        D             Em
Himmelen er gjennomsiktig havet blått og salt
      G         Am          Bm           C
Og jentene er søtere enn markjordbær på strå
   G        C
Sommer på jorda
  D          G
Livet det er nå








Bm chord:

         OR

e|---2---|---2---|
B|---3---|---3---|
G|---4---|---4---|
D|---4---|---4---|
A|---2---|---x---|
E|---2---|---x---|
comments
We did not receive enough feedback on this tab! Please rate:
print report bad tab
1 2 3 4 5
I want to post or [tab]
guest
You may want to rate the tab now too:
select rating
Please do not post tabs as comments. Select "correction" instead!