Oops, an error
Loading. Please wait.

All About That Bass chords

1,360 views 63 this week
no commentswrite comment
1 2 3 4 5
x 6
add to favorites
×
Save as Personal and add changes to this tab that will be seen only by you. Learn more ›
×
You can save this tab as Personal to edit and correct it or add notes. All changes will be seen only by you. Learn more »
launch autoscroll
font size
0
reset
transpose
0
reset
simplify chords
display chords
guitar tuner
edit
Autoscroll
slow
fast
+/-
esc
set tempo
stop
Author
Difficulty
Strumming
There is no strumming pattern for this song yet. and get +5 IQ
[Intro]
N.C
Because you know
    A
I'm all about that bass

'Bout that bass, no treble
    Bm
I'm all about that bass
           E
'Bout that bass, no treble
    Bm
I'm all about that bass
           E
'Bout that bass, no treble
    A
I'm all about that bass
                 E
'Bout that bass

[Verse]
A
Yeah, it's pretty clear, I ain't no size two
Bm
But I can shake it, shake it
E
Like I'm supposed to do
E
'Cause I got that boom boom that all the boys chase
    A
And all the right junk in all the right places

A
I see the magazine workin' that Photoshop
Bm
We know that shit ain't real
E
C'mon now, make it stop
E
If you got beauty, just raise 'em up
             A
'Cause every inch of you is perfect from the bottom to the top

         A        Bm            A     A/C        Bm    E
Yeah, my mama she told me don't worry about your size
           E                                        A       E
She says, "Boys like a little more booty to hold at night."
           A           Bm           A        A/C    Bm    E
You know I won't be no stick figure silicone Barbie doll
      E                                               A
So if that's what you're into then go ahead and move along

[Chorus]
N.C
Because you know
    A
I'm all about that bass

'Bout that bass, no treble
    Bm
I'm all about that bass
           E
'Bout that bass, no treble
    Bm
I'm all about that bass
           E
'Bout that bass, no treble
    A
I'm all about that bass
                 E
'Bout that bass

[Verse]
              A
"I'm bringing booty back!"
                              Bm
Go ahead and tell them skinny ladies that
E                               E
No I'm just playing. I know you think you're fat
E
But I'm here to tell ya
      A
Every inch of you is perfect from the bottom to the top

        A        Bm            A     A/C        Bm    E
Yeah my mama she told me don't worry about your size
           E                                        A       E
She says, "Boys like a little more booty to hold at night."
            A          Bm           A        A/C    Bm    E
You know I won't be no stick figure silicone Barbie doll
      E                                               A
So if that's what you're into then go ahead and move along
N.C
Because you know...

[Bass Solo]
e|---------------------------------------------------------------------------|
B|---------------------------------------------------------------------------|
G|---------------------------------------------------------------------------|
D|---------------------------------------------------------------------------|
A|---------------------------------------------------------------------------|
E|--5--3-4-5--3-4-5--3-4-5--5-6-7--5-6-7--5-6-7--5-6-7-7-7-------------------|

e|---------------------------------------------------------------------------|
B|---------------------------------------------------------------------------|
G|---------------------------------------------------------------------------|
D|---------------------------------------------------------------------------|
A|---------------------------------------------------------------------------|
E|--0-1-2-2-1-0-0-1-2-2-1-0-0-1-2-2-1-0-0-1-2-2-1-0--2-4-5-------------------|

e|---------------------------------------------------------------------------|
B|---------------------------------------------------------------------------|
G|---------------------------------------------------------------------------|
D|--------------------------9-8-9-11-9-8-------------------------------------|
A|--7-6-7-9-7-----7-7-6-7-9--------------11-12-11-9-7-9-7--------------------|
E|------------9-5------------------------------------------------------------|

e|---------------------------------------------------------------------------|
B|---------------------------------------------------------------------------|
G|---------------------------------------------------------------------------|
D|---------------------------------------------------------------------------|
A|--7-8-9-9-8-7-7-8-9-9-8-7-7-8-9-9-8-7-7-8-9-9-8-7--7-9-11-12-11-9-7-5-4-2-0|
E|---------------------------------------------------------------------------|

[Verse]
        A        Bm            A     A/C        Bm    E
Yeah my mama she told me don't worry about your size
           E                                        A       E
She says, "Boys like a little more booty to hold at night."
            A          Bm           A        A/C    Bm    E
You know I won't be no stick figure silicone Barbie doll
      E                                               A
So if that's what you're into then go ahead and move along

[Chorus]
    A
I'm all about that bass

'Bout that bass, no treble
    Bm
I'm all about that bass
           E
'Bout that bass, no treble
    Bm
I'm all about that bass
           E
'Bout that bass, no treble
    A
I'm all about that bass

'Bout that bass

[Ending]
    A
I'm all about that bass

'Bout that bass, no treble
    Bm
I'm all about that bass
           E
'Bout that bass, no treble
    Bm
I'm all about that bass
           E
'Bout that bass, no treble
    A
I'm all about that bass

'Bout that bass

            
            
Suggest correction
Creating personal tab
Creating personal tab
You can edit any tab online and save it as your Personal.

You can edit, replace or remove any tab part or add personal notes – all changes will be seen only by you.

Personal tabs can be accessed anytime from any device, even offline.
Learn more »
comments
print report bad tab
guest
You may want to rate the tab now too:
select rating
Wanna post a correction for this tab? Suggest correction