Oops, an error
Loading. Please wait.

Ulitin chords

version 1
version 1

Whole song

Interactive

by Pot
7,453 views 18 this week
2 commentsread comments
1 2 3 4 5
x 4
add to favorites
×
Save as Personal and add changes to this tab that will be seen only by you. Learn more ›
×
You can save this tab as Personal to edit and correct it or add notes. All changes will be seen only by you. Learn more »
launch autoscroll
font size
0
reset
transpose
0
reset
display chords
guitar tuner
edit
Autoscroll
slow
fast
+/-
esc
set tempo
stop
Author
Strumming
There is no strumming pattern for this song yet. and get +5 IQ
P.O.T.- Ulitin

-Well, another one from my archive of tabs. Enjoy dudes!

-All of these are, of course, barred chords.

Standard tuning: EADGBe

Intro, Verse and Chorus:
========================
C   D   E
-Just keep strumming these chords. However, the strumming does change slightly at 
parts, mind you.

Bridge:
=======
C~~~ D~~~
e|-5-3-2-3-4/6-7/9-7-5-3-1--------------------------------------------|
B|-5-3-2-3-4/6-7/9-7-5-3-1--------------------------------------------|
G|--------------------------------------------------------------------|
D|--------------------------------------------------------------------|
A|--------------------------------------------------------------------|
E|--------------------------------------------------------------------|

Solo:
=====
C   D   E
This is still the chord progression for this part. I decided to scrap my tab of the 
solo since I can't accurately transcribe it due to my not having an electric guitar yet.

Outro:
======
The chord progression goes:
C   D   C   E D C

End with C.

That's it!

E-mail me at ifyhard2@yahoo.com for comments, suggestions, or whatever, really! = )

-Ifyhard
Suggest correction
Creating personal tab
Creating personal tab
You can edit any tab online and save it as your Personal.

You can edit, replace or remove any tab part or add personal notes – all changes will be seen only by you.

Personal tabs can be accessed anytime from any device, even offline.
Learn more »
comments
print report bad tab
2 comments total.
0 reply
Ifyhard 413 May 15, 2009 06:20 AM

An e-mail I sent to a concerned pinoy rocker:

Naku, pare, maling mali pala sobra pagtab ko sa Ulitin... heheheh iilang taon na ba 'yung tab ko?

*D = down strum; U = up strum

Intro and Verse:
================
C D Em7
e|(3)-(3)(3)--(5)-(5)(5)---7---7--7--x-x-7-7-x-x-7-7-x-|
B|-5---5--5--x-7---7--7--x-8---8--8--x-x-8-8-x-x-8-8-x-|
G|-5---5--5--x-7---7--7--x-7---7--7--x-x-7-7-x-x-7-7-x-|
D|-5---5--5--x-7---7--7--x-9---9--9--x-x-9-9-x-x-9-9-x-|
A|-3---3--3--x-5---5--5--x-7---7--7--x-x-7-7-x-x-7-7-x-|
E|-----------------------------------------------------|
D/U D D U D D D U D D D D U D U D U D U D

Yung first strum ng C down stroke lang sa simula. Kapag tuloy tuloy mo na kasi inuulit yung verse, mapapansin mo upstroke na ginagawa mo pagpasok sa C dahil sa syncopation ng Em7.

Ang variation nyan ay:
C D Em7
e|(3)-(3)(3)--(5)-(5)(5)-x-x-7-7-x-x-7-7-x-x-7-7-x-x-7-7-x-|
B|-5---5--5--x-7---7--7--x-x-8-8-x-x-8-8-x-x-8-8-x-x-8-8-x-|
G|-5---5--5--x-7---7--7--x-x-7-7-x-x-7-7-x-x-7-7-x-x-7-7-x-|
D|-5---5--5--x-7---7--7--x-x-9-9-x-x-9-9-x-x-9-9-x-x-9-9-x-|
A|-3---3--3--x-5---5--5--x-x-7-7-x-x-7-7-x-x-7-7-x-x-7-7-x-|
E|---------------------------------------------------------|
D/U D D U D D D D U D U D U D U D U D U D U D U D

Chorus:
=======
C Bm7 Em7
e|(3)-(3)(3)-x-2---2--2--x-x-7-7-x-x-7-7-x-x-7-7-x-x-7-7-x-|
B|-5---5--5--x-3---3--3--x-x-8-8-x-x-8-8-x-x-8-8-x-x-8-8-x-|
G|-5---5--5--x-2---2--2--x-x-7-7-x-x-7-7-x-x-7-7-x-x-7-7-x-|
D|-5---5--5--x-4---4--4--x-x-9-9-x-x-9-9-x-x-9-9-x-x-9-9-x-|
A|-3---3--3--x-2---2--2--x-x-7-7-x-x-7-7-x-x-7-7-x-x-7-7-x-|
E|---------------------------------------------------------|
D/U D D U D D D D U D U D U D U D U D U D U D U D

Post-2nd Chorus: ("Kay tagal ko nang hinahanap ang munting paraiso..." part)
================
C D Bm7 Em7D C D

e|(3)-(3)(3)--(5)-(5)(5)-x-2---2--2--x-7-(5)-x(3)(5)|
B|-5---5--5--x-7---7--7--x-3---3--3--x-8--7--x-5--7-| Repeat agad.
G|-5---5--5--x-7---7--7--x-2---2--2--x-7--7--x-5--7-|
D|-5---5--5--x-7---7--7--x-4---4--4--x-9--7--x-5--7-|
A|-3---3--3--x-5---5--5--x-2---2--2--x-7--5--x-3--5-|
E|--------------------------------------------------|
D/U D D U D D D U D D D U D U D U D

Huling ulit mo dito (para pumunta sa bridge), ang chords ay C, D, Bm7, C (hang) nalang.

Bridge: (tamad na ako kapain uli... parang ganito lang naman)
=======
C D
e|(3)--(5)---3/5--3--2--3--3/5--5/7--5--3--2----|
B|-5----7----3/5--3--3--3--3/5--5/7--5--3--3--5-|
G|-5----7---------------------------------------|
D|-5----7---------------------------------------|
A|-3----5---------------------------------------|
E|----------------------------------------------|

Solo: Same chords as the Chorus. For the solo, improvise in the key
===== of C. In Ulitin+ of the P.O.T. Remastered album, he jams in the
key of Em. So, it's also a good idea to use the key of Em for
soloing in this song.

Outro: Similar to the post-2nd Chorus part.
====== kung gets mo na strumming ng verse, gets mo na rin ito.

C D Bm7 Em7... End at C. 'Pag nalilito ka sa strumming, halos isang strum lang yung Em7 dito.

--Fin--

0 reply
Ifyhard 413 May 15, 2009 06:23 AM

Uh, the "D/U" below the tab isn't in line with the tab.... sigh... bilangin nalang ninyo, o icopy paste nalang ninyo sa MS Word, hahahah!

guest
You may want to rate the tab now too:
select rating
Wanna post a correction for this tab? Suggest correction