Oops, an error
Loading. Please wait.

Capoicity Tab

178 views 3 this week
no commentswrite comment
1 2 3 4 5
2 more votes to show rating
add to favorites
launch autoscroll
font size
0
reset
how to read this tab
guitar tuner
Autoscroll
slow
fast
+/-
esc
set tempo
stop
Help us to improve Ultimate-Guitar.com Take our survey!
×
Difficulty
intermediate
Capocity - Powderfinger
of the album internationalist
writtern by Bernard Fanning

***************************
* Updated Solo, and piano arrangement all else original
***************************



I reckon this has to be my faviourite track of the album, then Belter.
I think the solo in this rocks and, yes i have included the solo, but its very
approxamate. Apart from the solo which is not exactly mind boggling the rest
of the song is pretty easy.
also, there is not a terrible ammont of guitar in this song, most of it is organ
pedals but i've sort of made a strum along in some parts.

capo on first fret, solo can be played with/or without the capo.

chords;
    E  Asus2  C  B
e-|-0----0----0--0----|
B-|-0----0----1--4----|
G-|-1----2----0--4----|
D-|-2----2----2--4----|
A-|-2----0----3--2----|
E-|-0-----------------|
 
intro;

E,Asus2,E,Asus2

verse;
E      Asus2            E             Asus2                 
honesty is out of style, so hammer in the coffin nails
E         Asus2               E            Asus2
a message sent across to land, with kissers for you

chorus thing;
C               Asus2    C          Asus2
we'll tell them nothing, our little secret
C             Asus2    C         B
they'll never make us, ever open up

at this point a little fill by guitar 2 comes in and goes over the verse

E,Asus2,E,Asus2

verse;
E         Asus2                E     Asus2   
tradition in and out the door, family our fatal flaw
E        Asus2            E ,            Asus2
a future frameless in design, a seamless concept

chorus;
C               Asus2    C          Asus2
we'll tell then nothing, our little secret
C             Asus2   C         B
they'll never make us ever open up
C               B
never break our trust
C                  B
until we're coffin dust

stop then...

solo
well here it is but as i said at the start it's very approxamate so if you have
corrections e-mail me.....p.s the notes in brackets are played really softly.....


|----------------------------------------------------------------------|
|---16------------9h11-------------------------------------------------|
|-----13----------------------13--12-----10---------10----8-----5------|
|----------------------------------------------------------------------|
|----------------------------------------------------------------------|
|----------------------------------------------------------------------|

|----------------------------------------------------------------------|
|---16------------9h11-------16--18------------------------------------|
|-----13-----------------------------15--13------------8brbr~~~~~~-----|
|----------------------------------------------------------------------|
|----------------------------------------------------------------------|
|----------------------------------------------------------------------|

|----------------------------------------------------------------------|
|---16~--------------------11---13-----------------------------11---13-|
|---------------10--13----------------------10---13--10--13------------|
|----------------------------------------------------------------------|
|----------------------------------------------------------------------|
|----------------------------------------------------------------------|

|---16~~------------------------------------16~16~~--------------------|
|---------------------------------11--13-------------------------------|
|-----------10----13--10--13-------------------------------------------|
|----------------------------------------------------------------------|
|----------------------------------------------------------------------|
|----------------------------------------------------------------------|

|-----------------------------------------------------11---------------|
|---------------------11--11----13--------13-p11-h13-------------------|
|--10----13--10--13----------------------------------------------------|
|----------------------------------------------------------------------|
|----------------------------------------------------------------------|
|----------------------------------------------------------------------|

|------------------------------------------------|
|------------------------------11-----------16~~-|
|-10-----13-----10------13-----------------------|
|------------------------------------------------|
|------------------------------------------------|
|------------------------------------------------|


straight after that there is this fill (this is also played under the solo)

       E                C                  B
|------------------------------------------------------------2---------|
|-------------0--------------1-----------------4-----------------4-----|
|----------------1--------------0------------4---4-------------4---4---|
|---------2---------------2----------------4---------------------------|
|-------2---------------3----------------------------------------------|
|----------------------------------------------------------------------|

but im really not sure about that riff so for the time being just strum E,C
and B under the words

E         C       B            E        C      B
when this feeling fades, 
      E        C      B       E      C       B
it'll all seem like a waste


breakdown;
piano arranged for guitar (i think its right, again e-mail me)
 
the occasinal strumings are just straming Asus2,

then the outro

outro;
E       Asus2                  E          Asus2         
fragile bond has shaken loose, the secret love a shrinking noose
E         Asus2          E         Asus2
sufficated on the truth, left with nothing
E       Asus2                  E          Asus2
fragile bond has shaken loose, the secret love a shrinking noose
E         Asus2          E         Asus2
sufficated on the truth, left with nothing
E         Asus2
left with nothing 
E         Asus2
left with nothing.......

finish on E

(fade)

well thats Capocity, as i said before i'm not sure about the solo or that riff
after the solo. E-mails would be greatly appriciated same with corrections,
my E-mail is d_colson@stpatricks.tas.edu.au  
The solo is probably totally wrong, but its what i came up with :)

this is my first tab so be nice

Tabbed by Dylan Colson......
Suggest correction
Give kudos to tab author, rate the tab!
1 2 3 4 5
comments
print report bad tab
guest
You may want to rate the tab now too:
select rating
Wanna post a correction for this tab? Suggest correction