Oops, an error
Loading. Please wait.
8,588 views 36 this week
4 commentsread comments
1 2 3 4 5
x 8
add to favorites
launch autoscroll
font size
0
reset
how to read this tab
guitar tuner
×
Best way to learn
"Daf"
Autoscroll
slow
fast
+/-
esc
set tempo
stop
D.A.F. by Powderfinger

Transcribed by Paul Stipack (paul.stipack@hunterlink.net.au)

INTRO:
E-|--------------------|------------|
B-|--------------------|------------|
G-|-9/11-11/12\11-9-11-|-3-3-3-2-2--|
D-|-0----0-----0--0-0--|-0-0-0-0-0--|(x 2)
A-|--------------------|------------|
E-|--------------------|------------|

VERSE PROGRESSION:
E-|-------------|----------|
B-|-3-3---2-2-3-|-1-1-1-1--|
G-|-2-2---2-2-2-|-2-2-2-2--|
D-|-0-0---2-2-2-|-3-3-3-3--|
A-|-------0-0-0-|-3-3-3-3--|
E-|-------------|----------|

PRE CHORUS:
E-|--------------------|------------|
B-|--------------------|------------|
G-|-9/11-11/12\11-9-11-|-3-3-3-3-3--|
D-|-0----0-----0--0-0--|-0-0-0-0-0--|(x 4)
A-|--------------------|------------|
E-|--------------------|------------|

CHORUS
E-|----------|--------------|
B-|------5-5-|--------------|
G-|-7-7--6-6-|-10-10-10-10--|
D-|-7-7--7-7-|-10-10-10-10--|
A-|-5-5--7-7-|-8--8--8--8---|
E-|------5-5-|--------------|

VARIATION OF CHORUS:
E-|----------|-------------|---------------|
B-|------5-5-|-------------|---------------|
G-|-7-7--6-6-|-10-10-10-10-|-2-2-2-2--1-1--|
D-|-7-7--7-7-|-10-10-10-10-|-3-3-3-3--2-2--|
A-|-5-5--7-7-|-8--8--8--8--|-3-3-3-3--2-2--|
E-|------5-5-|-------------|-1-1-1-1--0-0--|

LEAD OUTRO:
E-|------------------------------|
B-|-15--13-----------------------|
G-|--------14--15---12-12-12-12--|
D-|------------------------------|(x 4)
A-|------------------------------|
E-|------------------------------|

E-|------------------------------|
B-|-15--13-----------------------|
G-|--------14--15---15-15-15-15--|
D-|------------------------------|(x 2)
A-|------------------------------|
E-|------------------------------|

That's mainly all of it, the song ends with the last bar of the variation
of the chorus, most of the chords in the song are D A & F, just as the
title suggests.


paul.stipack@hunterlink.net.au
http://users.hunterlink.net.au/~ddlpp/
Suggest correction
comments
print report bad tab
4 comments total. Showing first comments.
0 reply
zaccy 201 Dec 08, 2004 07:00 PM

for some reason i think this sounds better?
INTRO:
E-|--------------------|------------|
B-|--------------------|------------|
G-|-9/11-11/12\11-9-11-|-3-3-3-2-2--|
D-|-0-0--0--0--0--0-0--|-0-0-0-0-0--|(x 2)
A-|--------------------|------------|
E-|--------------------|------------|

nice tab

0 reply
tess_m37 41 Jul 02, 2006 01:19 AM

this is a good tab, nice work

0 reply
TheRolingStoner 211 Jul 07, 2006 03:27 AM

nice tab

guest
You may want to rate the tab now too:
select rating
Wanna post a correction for this tab? Suggest correction