Oops, an error
Loading. Please wait.

My Happiness tab

version 1
version 1

Whole song

Interactive

64,821 views 111 this week
1 commentread comment
1 2 3 4 5
x 35
add to favorites
×
Save as Personal and add changes to this tab that will be seen only by you. Learn more ›
×
You can save this tab as Personal to edit and correct it or add notes. All changes will be seen only by you. Learn more »
launch autoscroll
font size
0
reset
how to read this tab
guitar tuner
edit
Autoscroll
slow
fast
+/-
esc
set tempo
stop
Author
[Intro]
           Fmaj7     C     Fmaj7     C
           1   2   3   4   1   2   3   4
E|------|--0-------------0-----------------|
B|--1-3-|*---------1---3---------1---1-3--*|
G|2-----|------2-------------2-----2-------|
D|------|----------------------------------|
A|------|*--------------------------------*|
E|------|----------------------------------|

           Fmaj7         C           Fmaj7  C
I see your shadow on the street now
           Fmaj7            C           Fmaj7  C
I hear you push through the rusty gate
              Fmaj7        C         Fmaj7  C
Click of your heels on the concrete
              Fmaj7        C            Fmaj7  C
Waiting for a knock coming way too late
            Fmaj7          C         Fmaj7  C
It seems an age since I've seen you
                 Fmaj7         C         Fmaj7  C
Countdown as the weeks trickle into days

[Bridge]
Em                               Am
So you come in and put your bags down
Em                              Am
I know there's something in the air
Em                             G
How can I do this to you right now
                                           F
If you're over there when I need you here

[Chorus]
   C    G       F
My happiness is slowly creeping back
    C         G
Now you're at home
F                 C       G
If it ever starts sinking in
   F                     C      G
It must be when you pack up and go

[Instrumental]
           Fmaj7     C     Fmaj7     C
           1   2   3   4   1   2   3   4
E|------|--0-------------0-----------------|
B|--1-3-|*---------1---3---------1---1-3--*|
G|2-----|------2-------------2-----2-------|
D|------|----------------------------------|
A|------|*--------------------------------*|
E|------|----------------------------------|

            Fmaj7          C         Fmaj7  C
It seems an age since I've seen you
                 Fmaj7         C         Fmaj7  C
Countdown as the weeks trickle into days
            Fmaj7               C    Fmaj7  C
I hope that time hasn't changed you
             Fmaj7       C      Fmaj7  C
All I really want is for you to stay

[Bridge]
Em                               Am
So you come in and put your bags down
Em                              Am
I know there's something in the air
Em                             G
How can I do this to you right now
                                           F
If you're over there when I need you here

[Chorus]
   C    G       F
My happiness is slowly creeping back
    C         G
Now you're at home
F                 C       G
If it ever starts sinking in
   F                     C      G
It must be when you pack up and go

F               C              G     F
I know I know I know what is inside
F               C              G     F
I know I know I know what is inside
F               C              G     F
I know I know I know what is inside
F               C              G
I know I know I know what is inside

[Solo]
           Fmaj7     C     Fmaj7     C
           1   2   3   4   1   2   3   4
E|------|--0-------------0-----------------|
B|--1-3-|*---------1---3---------1---1-3--*|
G|2-----|------2-------------2-----2-------|
D|------|----------------------------------|
A|------|*--------------------------------*|
E|------|----------------------------------|

    Fmaj7     C     Fmaj7     C
    1   2   3   4   1   2   3   4   
E|--5-------5-------3-------3---3---|
B|*-----5-----5--------------------*|
G|----------------------------------|
D|----------------------------------|
A|*--------------------------------*|
E|----------------------------------|

   G
   1   2   3   4   1   2   3   4   
E|---------------------------------|
B|-3-------3h5-----5h6-----6h8-----|
G|---------------------------------|
D|---------------------------------|
A|---------------------------------|
E|---------------------------------|
             you're there   you here
             over   when I
                    need
[Chorus] x2
   C    G       F
My happiness is slowly creeping back
    C         G
Now you're at home
F                 C       G
If it ever starts sinking in
   F                     C      G
It must be when you pack up and go

   F               C               G               F
   1       2       3       4       1       2       3       4   
E|------------------------------------------------------------------|
B|-------------------------5-3---------------------3-5-3---1--------|
G|-2h5---2h5---2h5---2h5-------------------------bend-bend----------|
D|------------------------------------------------up--down----------|
A|------------------------------------------------------------------|

   F               C               G
   1       2       3       4 
E|---------------------------------|
B|-------------------------5-3-----|
G|-2h5---2h5---2h5---2h5-----------|
D|---------------------------------|
A|---------------------------------|
E|---------------------------------|


************************************

| *  Natural harmonic
| h  Hammer-on

************************************

            
            
Suggest correction
Creating personal tab
Creating personal tab
You can edit any tab online and save it as your Personal.

You can edit, replace or remove any tab part or add personal notes – all changes will be seen only by you.

Personal tabs can be accessed anytime from any device, even offline.
Learn more »
comments
print report bad tab
1 comment total.
+1 reply
jgatward 10 Jul 29, 2014 10:07 PM

Perfect - good to see Powderfinger tabs

guest
You may want to rate the tab now too:
select rating
Wanna post a correction for this tab? Suggest correction