Oops, an error
Loading. Please wait.

Waiting For The Sun tab

version 1
version 1

Whole song

9,419 views 9 this week
3 commentsread comments
1 2 3 4 5
x 7
add to favorites
×
Save as Personal and add changes to this tab that will be seen only by you. Learn more ›
×
You can save this tab as Personal to edit and correct it or add notes. All changes will be seen only by you. Learn more »
launch autoscroll
font size
0
reset
how to read this tab
guitar tuner
edit
Autoscroll
slow
fast
+/-
esc
set tempo
stop
-------------------------------------------------------------------------------
                             WAITING FOR THE SUN - Powderfinger
-------------------------------------------------------------------------------

Tabbed by:Anthony C (rhcp_guitarist on UG)


Tuning: Standard (low to high - eadgbe)
Key: h = hammer on   p = pull off   / = slide
Intro/Verse 1: (slight overdrive)
     E     G     D     A       E
e|---0-----3-----2-----0-------0000000000000000-----|
B|---0-----3-----3-----2-------0000000000000000-----|
G|---1-----0-----2-----2---x3--1111111111111111-----|  
D|---2-----0-----0-----2-------2222222222222222-----|
A|---2-----2-----------0-------2222222222222222-----|
E|---0-----3-------------------0000000000000000-----|

     E     G     D     A  
e|---0-----3-----2-----0-------0000000000000000-----|
B|---0-----3-----3-----2-------0000000000000000-----|
G|---1-----0-----2-----2---x3--1111111111111111-----|  
D|---2-----0-----0-----2-------2222222222222222-----|
A|---2-----2-----------0-------2222222222222222-----|
E|---0-----3-------------------0000000000000000-----|

Chorus: (chords)
E G D A x2 AAAAAAAA

Verse 2: (Same as first verse, only the guitar 
may have a very slight auto-wah effect)

Chorus

Interlude:
Four chords E G D A x4, on second time secong guitar comes in doing:
e|-------------------------------------|
B|--7-5-7--7-5-7-----7-5-7-7/8-7-5-----|
G|---------------7-6---------------6-5-|
D|-------------------------------------|
A|-------------------------------------|
E|-------------------------------------|
then this solo, with the same chords played behind it
e|----------------------------------------|
B|------10-12------10-10-----(7h8p7)------|
G|-9-12-------9-12------------------------|
D|----------------------------------(9)---|
A|----------------------------------------|      
E|----------------------------------------|      
Do this four times, but on the last two times dont play the part in brackets

Now play the chorus with the solo thing over the top (but without the part in brackets)
THATS IT! have fun with it:D.

            
            
Suggest correction
Creating personal tab
Creating personal tab
You can edit any tab online and save it as your Personal.

You can edit, replace or remove any tab part or add personal notes – all changes will be seen only by you.

Personal tabs can be accessed anytime from any device, even offline.
Learn more »
comments
print report bad tab
3 comments total.
0 reply
Jasello7793 10 Jan 23, 2008 02:25 AM

that tab is totaly wrong. it is played with a capo on the second fret. but the wierd thing is it sounds fairly right
though.

0 reply
symon.bassi 31 Mar 29, 2013 05:44 AM

its right but a second guitar plays capo

0 reply
symon.bassi 31 Mar 29, 2013 05:57 AM

add this...
guitar 1
capo 2nd fret - no.s relative to capo
guitar 2
no capo

intro/verse - guitar 1

>e--1----------------(5)---------------0----------------3-----------------
>b--3-----------------6----------------1----------------3-----------------
>g--2-----------------5----------------0----------------0-----------------
>d--0-----------------0----------------2----------------0-----------------
>a-------------------------------------3----------------x-----------------
>e------------------------------------------------------3-----------------

verse - guitar 2 with wah

>e---0-0-0-0-0-0-0-0-0-0-0-0-0-0-0-0---0-0-0-0-0-0-0-0---0-0-0-0-0-0-0-0--
>b--/5-5-5-5-5-5-5-5/7-7-7-7-7-7-7-7-5/7-7-7-7-7-7-7-7-7/8-8-8-8-8-8-8-8--
>g------------------------------------------------------------------------
>d------------------------------------------------------------------------
>a------------------------------------------------------------------------
>e------------------------------------------------------------------------

Singing my love....

guitar 1
e-----
b--3--
g--2--
d--0--
a-----
e-----

guitar 2
e-----
b-----
g-----
d--2--
a--2--
e--0--

chorus

guitar 1 (chords relative to capo)

Dm C/E F C G

>e-----------------------------------------------------------3--
>b---------3-----------1------------1---------1--------------3--
>g------2-----------0------------2----------0-0------------0-0--
>d---0--------0--2--------2---3-----------2--------------0-0----
>a--------------------------------------3-----------------------
>e---------------------------------------------------3----------

guitar 2

Em D/F# G D A

e-----------------------------------3---------2----------------
b---------0------------3------------3------3--3------2---------
g---------0---------2--2------------0---2--2--2------2---------
d-------2-2---------0--0--0------0------0-----0------2---------
a----2--2--------x------------x----------------------0---------
e----0-----------2--------2---3--------------------------------
Bridge
guitar 1
Am F C G
e--0-0--------------3--
b--1-1--1-1--1-1-1--3--
g--2-2--2-2--0-0-0--0--
d--2-2--3-3--2-2-2--0--
a--0-0--3-3--3-3-3--x--
e-------------------3--

guitar 2
e-------3-3------------
b-------3-3--3-3-3--2--
g--4-4--0-0--2-2-2--2--
d--4-4--0-0--0-0-0--2--
a--2-2--x-x---------0--
e-------3-3------------

e|-------------------------------------| 2nd time
B|--7-5-7--7-5-7-----7-5-7-7/8-7-5-----|
G|---------------7-6---------------6-5-|
D|-------------------------------------|
A|-------------------------------------|
E|-------------------------------------|

guest
You may want to rate the tab now too:
select rating
Wanna post a correction for this tab? Suggest correction